Song name
# A B C D E F G H I J K L M N O P Q R S T U V W X Y Z

Sky Sailing - Flowers Of The Field tab

e|--------------------------------------------------|
B|--------------------------------------------------|
G|-----1--------------------------------------------|
D|-1-3---3-1-------------6--------------------------|
A|-----------4---------4----------------------------|
E|-------------4-4-4-6------------------------------|

e|--------------------------------------------------|
B|--------------------------------------------------|
G|-----1--------------------------------------------|
D|-1-3---3-1---------------3-4-3--------------------|
A|-----------4-------6-4-6-------4-----6-4----------|
E|-------------4-4-4---------------4-4-----4--------|
Tap to rate this tab
 
# A B C D E F G H I J K L M N O P Q R S T U V W X Y Z