Sky Sailing - Alaska tab

Capo on 2nd fret

INTRO:

D |------0-----------0----------------------X--X-|
G |----------0-----0-----0--------------0---X--X-|
F#|0/1-1---1---0-------0----------------0---X--X-|
D |-------------------------2--2/4/2/0--0---X--X-|
G |-------------------------0-----------0---X--X-|
D |-------------------------------------0---X--X-|

Chord progression: (you can figure out the rhythm for your self)

   D   Dsus2  Dsus   D   Bsus    ?     D   Dsus2  Dsus   D    Em     G     A

|--0-----0-----0-----0-----0-----0-----0-----0-----0-----0-----0-----0-----0-|
|--0-----0-----0-----0-----0-----0-----0-----0-----0-----0-----0-----0-----0-|
|--3-----3-----3-----3-----5-----3-----3-----3-----3-----3-----1-----5-----7-|
|--4-----2-----5-----4-----4-----2-----4-----2-----5-----4-----0-----0-----0-|
|--5-----5-----5-----5-----2-----4-----5-----5-----5-----5-----2-----5-----7-|
|--X-----X-----X-----X-----X-----X-----X-----X-----X-----X-----2-----5-----7-|
Tap to rate this tab
 
# A B C D E F G H I J K L M N O P Q R S T U V W X Y Z