Song name
# A B C D E F G H I J K L M N O P Q R S T U V W X Y Z

Sky - You tab

Band:SKY
Song:YOU
Album:Travelling Infinity
Tabbed by Brian
this is a pretty funky song

*LISTEN TO THE SONG FOR THE STRUMMING
e--5------x--------X-----X--------------------|
B--6------3--------3-----5--------------------|
G--7------3--------3-----5--------------------|
D--7------3--------3-----5--------------------|
A--5------X--------X-----X--------------------|
E--5------3--------3-----5--------------------|
  THESE CHORD      AND THESE ONES
ARE STRUMMED THE   FAST AND THEN REPEAT
      SAME          THROUGH SONG

Band:SKY
Song:YOU
Album:Travelling Infinity
Tabbed by Brian
this is a pretty funky song

*LISTEN TO THE SONG FOR THE STRUMMING
e--5------x------------X-----X---------------------|
B--6------3------------3-----5---------------------|
G--7------3------------3-----5---------------------|
D--7------3------------3-----5---------------------|
A--5------X------------X-----X---------------------|
E--5------3------------3-----5---------------------|
  THESE CHORD         : AND THESE ONES ARE PLAYED
ARE STRUMMED          : FAST AND THEN REPEAT
      SAME              :THROUGH OUT THE SONG
Tap to rate this tab
# A B C D E F G H I J K L M N O P Q R S T U V W X Y Z