Song name
# A B C D E F G H I J K L M N O P Q R S T U V W X Y Z

Sky - Carrillon tab

                                          Artist - Sky
                                         **************
                                        Song - Carrillon 
                                       ******************
                                          Album - Sky 
                                         *************
                                      Tabbed By - Ayreon77
                                     **********************


This is Sky the British/Australian Prog Rock Group, From The 70s
             Not the Sky Pop/Rock Group From Canada



PIANO INTRO
************

--------------------------------------------------
SECTION 1
**********
 00:13                                     00:30 
  F   Bb     Am   C   F   Bb     Am   C  Am          Dm  Am  Dm   F   C
             h                    h                  s         
[-5------6-5-6-5--3-|-5------6-5-6-5--3-|-5-6-5-|-5\-10--12--13-|---5---3-]
[-------------------|-------------------|-------|---------------|---------]
[---5-7-------------|---5-7-------------|-------|---------------|-5---5---]
[-------------------|-------------------|-------|---------------|---------]
[-------------------|-------------------|-------|---------------|---------]
[-------------------|-------------------|-------|---------------|---------]X2


--------------------------------------------------
SECTION 2
**********
01:18
  F   Am       Dm       F          Bb     Gm         Am  C
                 s                   s
[-8----8-10-12-13\-------|-------8-10\-----|---------5-----]
[------------------10-10-|-10-11-------6-6-|---5-6-8-----8-]
[------------------------|-----------------|-7-------------]
[------------------------|-----------------|---------------]
[------------------------|-----------------|---------------]
[------------------------|-----------------|---------------]X2


--------------------------------------------------
SECTION 1 
**********
pick this with section one 
 F                Bb               Am               C
[-----1--------2-|-----1--------1-|-----0--------0-|-----0--------0-]
[-1-1---1----1---|-3-3---3----3---|-1-1---1----1---|-1-1---1----1---]
[---------2------|---------3------|---------2------|---------0------]
[----------------|----------------|----------------|----------------]
[----------------|----------------|----------------|----------------]
[----------------|----------------|----------------|----------------]X2

 Am                                Dm        C         Bb
[----------------|----------------|-------1-|-------0-|-----------------]
[-----1--------1-|-----1--------1-|-----3---|-----1---|-------3-------3-]
[-2-2---2----2---|-2-2---2----2---|---2-----|---0-----|-----3---3---3---]
[---------2------|---------2------|-0-------|-2-------|---3-------3-----]
[----------------|----------------|---------|---------|-1---------------]
[----------------|----------------|---------|---------|-----------------]

 F                                   C
[-------1-------1-|-------1-------1-|-------0-------0-|-------0-------0-]
[-----1---1---1---|-----1---1---1---|-----1---1---1---|-----1---1---1---]
[---2-------2-----|---2-------2-----|---0-------0-----|---0-------0-----]
[-----------------|-----------------|-----------------|-----------------]
[-1---------------|-1---------------|-3---------------|-3---------------]
[-----------------|-----------------|-----------------|-----------------]


--------------------------------------------------
SECTION 2
**********
ELECTRIC GUITAR
****************

 GUITAR 1 - Electric Guitar
                 s                   s
[-8----8-10-12-13\-------|-------8-10\-----|---------5-----]
[------------------10-10-|-10-11-------6-6-|---5-6-8-----8-]
[------------------------|-----------------|-7-------------]
[------------------------|-----------------|---------------]
[------------------------|-----------------|---------------]
[------------------------|-----------------|---------------]
|
|GUITAR 2 - Electric Guitar
[--------------8-10-12-13\-------|-------8-10\-------------]
[--------------------------10-10-|-10-11-------6-6---------]
[--------------------------------|-------------------------]
[--------------------------------|-------------------------]
[--------------------------------|-------------------------]
[--------------------------------|-------------------------]
|
|GUITAR 3 - Classical Guitar
|                s                   s                   s
[------8-10-12-13\-------|-8-10-12-13\-------|-------8-10\-----]
[------------------10-10-|-------------10-10-|-10-11-------6-6-]
[------------------------|-------------------|-----------------]
[------------------------|-------------------|-----------------]
[------------------------|-------------------|-----------------]
[------------------------|-------------------|-----------------]

 GUITAR 3 - Classical Guitar
[---------5-----|------------]
[---5-6-8-----8-|------5-6-8-]
[-7-------------|-5--7-------]
[---------------|------------]
[---------------|------------]
[---------------|------------]


02:56        h                   h
[-5-------6-5-6-5--3-|-5------6-5-6-5--3-|-5-]
[--------------------|-------------------|---]
[---5--7-------------|---5-7-------------|---]
[--------------------|-------------------|---]
[--------------------|-------------------|---]
[--------------------|-------------------|---]

A pretty simple tune to play


http://plum.cream.org/sky/band.htm


ENJOY......
Tap to rate this tab
# A B C D E F G H I J K L M N O P Q R S T U V W X Y Z