Song name
# A B C D E F G H I J K L M N O P Q R S T U V W X Y Z

Skybombers - It Goes Off tab

Please rate!

Intro/Verse

e|---------------------------------------------------------------------------|
B|---------------------------------------------------------------------------|
G|--------------------------------------5--5-5-5-5-5-5-5-5-5-5-5-5-5-5-5-----|
D|---7-7-7-7-7-7-7-7-7-7-7-7-7-7-7-7----5--5-5-5-5-5-5-5-5-5-5-5-5-5-5-5-----|
A|---7-7-7-7-7-7-7-7-7-7-7-7-7-7-7-7----3--3-3-3-3-3-3-3-3-3-3-3-3-3-3-3-----|
E|---5-5-5-5-5-5-5-5-5-5-5-5-5-5-5-5-----------------------------------------|

e|---------------------------------------------------------------------------|
B|---------------------------------------------------------------------------|
G|---7--7-7-7-7-7-7-7-7-7-7-7-7-7-7-7----------------------------------------|
D|---7--7-7-7-7-7-7-7-7-7-7-7-7-7-7-7--7--7-7-7-7-7-7-7-7-7-7-7-7-7-7-7------|
A|---5--5-5-5-5-5-5-5-5-5-5-5-5-5-5-5--7--7-7-7-7-7-7-7-7-7-7-7-7-7-7-7------|
E|-------------------------------------5--5-5-5-5-5-5-5-5-5-5-5-5-5-5-5------|

at the end of the verse, there is a litle riff bit the goes with the above A5;
                           Chorus
e|------------------------|---------------------------------------------------|
B|------------------------|---------------------------------------------------|
G|---7^p5-----------------|---------------------------------------------------|
D|--------7-5---7-7-7-7---|---7^-7^-7p5h7p5-5-5-5-5-5-5-5-5-5-5-5-5-5-5-5-5---|
A|--------------7-7-7-7---|-----------------5-5-5-5-5-5-5-5-5-5-5-5-5-5-5-5---|
E|--------------5-5-5-5---|-----------------3-3-3-3-3-3-3-3-3-3-3-3-3-3-3-3---|

e|----------------|----------------------------------------------------------|
B|----------------|----------------------------------------------------------|
G|----------------|----------------------------------------------------------|
D|---7-7-7-7------|---3-3-3-3-3-3-3-3-3-3-3-3-3-3-3-3---5--------------------|
A|---7-7-7-7------|---3-3-3-3-3-3-3-3-3-3-3-3-3-3-3-3---5--------------------|
E|---5-5-5-5---x2-|---1-1-1-1-1-1-1-1-1-1-1-1-1-1-1-1---3--x16---------------|

the bit after the chorus is just the verse again with a different rythm than downstrokes.

| /  slide up
| \  slide down
| h  hammer-on
| p  pull-off
| ^  bend
Tap to rate this tab
 
# A B C D E F G H I J K L M N O P Q R S T U V W X Y Z