Song name
# A B C D E F G H I J K L M N O P Q R S T U V W X Y Z

Skybox - Various Kitchen Utensils chords

Highlighted       Show chord diagrams
Artist: Skybox
Song: Various Kitchen Utensils
Album: Arco Iris
Tab: dylans a loser

Piano Intro:
Plays during first verse.

e|---5---2-------------5---2---------------2---4-----------------4----------|
B|----------5---2----2--------5---2---2--5---------5---2---2-5-2------------|
G|--------------------------------------------------------------------------|
D|--------------------------------------------------------------------------|
A|--------------------------------------------------------------------------|
E|--------------------------------------------------------------------------|

e|---5---2-------------5---2---------------2---4---5-5--7-7----12-12--------|
B|----------5---2----2--------5---2---2--5----------------------------------|
G|--------------------------------------------------------------------------|
D|--------------------------------------------------------------------------|
A|--------------------------------------------------------------------------|
E|--------------------------------------------------------------------------|

Well I love my soul, I love my little toes
And they love me too, my darlings.
Well we can be friends, we can shake hands
We can be family.


A
Well I keep em close, I keep em real close
              C#m
So no one can take them from me.
D
Can't sleep much. I gotta
Dm
Watch my family, ooh hoo.


Chorus:
A             C#m                   D
They're gonna love my babies tonight
D            Dm
When they're under the spotlight-ity-dee
A             C#m                   D
They're gonna love my babies tonight
D                Dm
They're going to love my babies.

A            C#m
 Ba ba da da duh
         D
Ba da da dum
         Dm
Ba da da dum
            A
Ba da da da dum
            C#m
Ba da da da dum
         D
Ba da da dum
         Dm
Ba da da dum



Repeat intro:
e|---5---2-------------5---2---------------2---4-----------------4----------|
B|----------5---2----2--------5---2---2--5---------5---2---2-5-2------------|
G|--------------------------------------------------------------------------|
D|--------------------------------------------------------------------------|
A|--------------------------------------------------------------------------|
E|--------------------------------------------------------------------------|

e|---5---2-------------5---2---------------2---4---5-5--7-7----12-12--------|
B|----------5---2----2--------5---2---2--5----------------------------------|
G|--------------------------------------------------------------------------|
D|--------------------------------------------------------------------------|
A|--------------------------------------------------------------------------|
E|--------------------------------------------------------------------------|

Well it was love at first sight
Me and my right arm, we love to
Play together
And then there's my thumb, well he's a grumpy one
He goes Grrrrrrrr to you.


A
Well me and my thumb, we like to run
        C#m
We say (Ay!?) together
D
Like big stars we'll
Dm
Shine forever ooh baby.


Chorus


F#m
You'll be fine, 
F#m                                 A
There's a lot of time to get up and find where to hide
A
There's a lot of time to find where to hide.

(Repeat)
(Last time through, end on a Dm)


Chorus





Great song to play at a bonfire in B.F.E.




Skybox:
http://www.skyboxmusic.com
Tap to rate this tab
 
# A B C D E F G H I J K L M N O P Q R S T U V W X Y Z