Song name
# A B C D E F G H I J K L M N O P Q R S T U V W X Y Z

Skycamefalling - 1021 tab

skycamefalling - 10.21

tabbed by Jason Lascurain

i'm - by no means - claiming this to be 100% accurate, although it sounds great when played.
only the main guitar is tabbed, others are too difficult for me to tab.

tuning - Db Ab Db Gb Bb Eb

\ - slide down
~ - let ring
h - hammer on
p - pull off

clean throughout, reverb throughout


intro, play 8x
------------------0----0------------------------------------------|
-----0----0-----3----3---3----------------------------------------|
---5----5---5-----------------------------------------------------|
-3------------0---------------------------------------------------|
------------------------------------------------------------------|
------------------------------------------------------------------|

0:34, play a flats on g string very lowly, play 4x
------------------------------------------------------------------|
-------0----0---------5----5--------------------------------------|
----2-----2---2---------------------------------------------------|
-0--------------3--3-----3---3------------------------------------|
------------------------------------------------------------------|
------------------------------------------------------------------|


0:51, play 3x
------------------------------------------------------------------|
-------0----0---------5----5--------------------------------------|
----2-----2---2---------------------------------------------------|
-0--------------3--3-----3---3------------------------------------|
-0----------------------------------------------------------------|
-0----------------------------------------------------------------|


1:03, play 1x
------------------------------------------------------------------|
-------0----0---------5----5--------------------------------------|
----2-----2---2---------------------------------------------------|
-0--------------3--3-----3---3------------------------------------|
-0--------------0-------------------------------------------------|
-0--------------0-------------------------------------------------|


1:08, play 3x
------------------------------------0----0---------0----0---------|
---------------------------------3-----3---3----3-----3---3-------|
------------------------------------------------------------------|
-----7~~---7-------5~~---5----0~-------------0~-------------------|
---5-----5---5---3-----3---3--0~-------------0~-------------------|
-5-------------3--------------0~-------------0~-------------------|


1:31, play 1x
------------------------------------0----0----------------------------|
---------------------------------3-----3---3--0h3-3-------------------|
-----------------------------------------------------0h2-2--0h2p0-----|
-----7~~---7-------5~~---5----0~-----------------------------------3~-|
---5-----5---5---3-----3---3--0~--------------------------------------|
-5-------------3--------------0~--------------------------------------|

1:39, play 3 1/2x
--------0---0----------------------------------0----0--------------------------|
-----3----3---3--0h3-3----------------------3-----3---3--0h3-3-----------------|
------------------------0h2-2--2-2-3-3--------------------------0h2-2--0h2p0---|
-0~-------------------------------------0~-----------------------------------3-|
-0~-------------------------------------0~-------------------------------------|
-0~-------------------------------------0~-------------------------------------|


2:05, again, play a flat lowly, play 4x
------------------------------------------------------------------|
-------0----0---------5----5--------------------------------------|
----2-----2---2---------------------------------------------------|
-0--------------3--3-----3---3------------------------------------|
------------------------------------------------------------------|
------------------------------------------------------------------|

2:21, play 4x
------------------------------------------------------------------|
-------0----0---------5----5--------------------------------------|
----2-----2---2---------------------------------------------------|
-0--------------3--3-----3---3------------------------------------|
-0----------------------------------------------------------------|
-0----------------------------------------------------------------|

2:37, play 3x
------------------------------------0----0---------0----0---------|
---------------------------------3-----3---3----3-----3---3-------|
------------------------------------------------------------------|
-----7~~---7-------5~~---5----0~-------------0~-------------------|
---5-----5---5---3-----3---3--0~-------------0~-------------------|
-5-------------3--------------0~-------------0~-------------------|

3:00, play 1x
------------------------------------0----0----------------------------|
---------------------------------3-----3---3--0h3-3-------------------|
-----------------------------------------------------0h2-2--0h2p0-----|
-----7~~---7-------5~~---5----0~-----------------------------------3~-|
---5-----5---5---3-----3---3--0~--------------------------------------|
-5-------------3--------------0~--------------------------------------|

3:08, play 3 1/2 times
--------0---0----------------------------------0----0--------------------------|
-----3----3---3--0h3-3----------------------3-----3---3--0h3-3-----------------|
------------------------0h2-2--2-2-3-3--------------------------0h2-2--0h2p0---|
-0~-------------------------------------0~-----------------------------------3-|
-0~-------------------------------------0~-------------------------------------|
-0~-------------------------------------0~-------------------------------------|

3:34, play 4x
--------------------------------------------------------------------|
-------------------------10-10-11--3-3-3-3-3-3-3-3-3-3-3-3-3-3-3-3--|
-------------------------10-10-10--2-2-2-2-2-2-2-2-2-2-2-2-2-2-2-2--|
-----------------------------------0-0-0-0-0-0-0-0-0-0-0-0-0-0-0-0--|
-5-5-5-5-5-5-8-8-8-8-8-8-----------0-0-0-0-0-0-0-0-0-0-0-0-0-0-0-0--|
-5-5-5-5-5-5-8-8-8-8-8-8-----------0-0-0-0-0-0-0-0-0-0-0-0-0-0-0-0--|
pm . . . . . . . . . . . .. .. ..  . . . .   . . .   . . .   . . .

3:50, play 6x, listen for strumming pattern, start with soft strums, build up
------------------------------------------------------------------|
--1----3----5----6------------------------------------------------|
--2----2----5----5------------------------------------------------|
--0----0----3----3------------------------------------------------|
-(0)--------------------------------------------------------------|
-(0)--------------------------------------------------------------|

4:37, play 4x
---------------------------------------------------0~~------------|
---------------------------------------------------3~~------------|
-------7----7---------3----3---------5----5-----------------------|
----7-----7---7----3-----3---3----5-----5---5--5~~----------------|
-5--------------1--------------3---------------0~~----------------|
------------------------------------------------------------------|

5:09, play 4x, listen for strummin pattern
------------------------------------------------------------------|
--1----3----5----6------------------------------------------------|
--2----2----5----5------------------------------------------------|
--0----0----3----3------------------------------------------------|
-(0)--------------------------------------------------------------|
-(0)--------------------------------------------------------------|

5:40, play 4x, gradually strum more heavily, listen for strumming pattern
------------------------------------------------------------------|
--1----3----5----6------------------------------------------------|
--2----2----5----5------------------------------------------------|
--0----0----3----3------------------------------------------------|
--0----0----3----3------------------------------------------------|
--0----0----3----3------------------------------------------------|

6:11, play 2x, listen for strumming pattern
-------x----3----x------------------------------------------------|
--1----x----3----x----5----6--------------------------------------|
--2----x----2----x----5----5--------------------------------------|
--0----x----0----x----3----3--------------------------------------|
--0----x---------x----3----3--------------------------------------|
--0----x---------x----3----3--------------------------------------|

6:26, play 2x, listen for strumming pattern
-------x---------x------------------------------------------------|
--1----x----3----x----5----6--------------------------------------|
--2----x----2----x----5----5--------------------------------------|
--0----x----0----x----3----3--------------------------------------|
--0----x----0----x----3----3--------------------------------------|
--0----x----0----x----3----3--------------------------------------|

6:41, play 4x, listen for strumming pattern
------------------------------------------------------------------|
-10---10\9---9---9\8---8---8\7---7--------------------------------|
------------------------------------------------------------------|
-7-----7\6---6---6\5---5---5\4---4--------------------------------|
-0-----0-----0---0-----0---0-----0--------------------------------|
-0-----0-----0---0-----0---0-----0--------------------------------|

7:13, play 4x, listen for strumming pattern
------------------------------------------------------------------|
-1--------3-------------------------------------------------------|
-2--------2-------------------------------------------------------|
-0--------0-------------------------------------------------------|
---------(0)------------------------------------------------------|
---------(0)------------------------------------------------------|

7:45 play this until 8:17, throwing in an open Db and Ab every once in a while,
and bending the Bb string every so often, listen for strumming pattern
------------------------------------------------------------------|
-1----------------------------------------------------------------|
-2----------------------------------------------------------------|
-0----------------------------------------------------------------|
------------------------------------------------------------------|
------------------------------------------------------------------|

8:17, play 8x, i throw in open Db and Ab when db string is hit
------------------0----0------------------------------------------|
-----0----0-----3----3---3----------------------------------------|
---5----5---5-----------------------------------------------------|
-3------------0---------------------------------------------------|
------------------------------------------------------------------|
------------------------------------------------------------------|


end with
-----------------------------------------------------------------------|
-3~~~------------------------------------------------------------------|
-2~~~------------------------------------------------------------------|
-0~~~------------------------------------------------------------------|
-0~~~------------------------------------------------------------------|
-0~~~------------------------------------------------------------------|

questions, comments, my first and last name @ gmail
Tap to rate this tab
 
# A B C D E F G H I J K L M N O P Q R S T U V W X Y Z