Song name
# A B C D E F G H I J K L M N O P Q R S T U V W X Y Z

Skycamefalling - Porcelain Heart Promises tab

skycamefalling - porcelain heart promises.

    eb|-----------------------------------------------------|
    Bb|-5-5-5-5-5-5-5-5-5-5-5-5-5-5-5-5---------------------|
GTR Gb|-7-7-7-7-7-7-7-7-9-9-9-9-8-8-8-8---------------------|
1+2 Db|-0-0-0-0-0-0-0-0-0-0-0-0-0-0-0-0---------------------| x4
    Ab|-----------------------------------------0---------0-|
    Db|---------------------------------0h2p1p0-0-0h2p1p0-0-|

    eb|---------------------------------------------------------------|
    Bb|---------------------------------------------------------------|
GTR Gb|---------------------------------------------------------------|
1+2 Db|-------------------------------0-0-0-0-1-1-1-1-3-3-3-3-6-6-6-6-| x4
    Ab|-0-11-11-0-10-10-0-8--8--0-6-6-0-0-0-0-1-1-1-1-3-3-3-3-6-6-6-6-|
    Db|-0-13-13-0-12-12-0-10-10-0-8-8-0-0-0-0-1-1-1-1-3-3-3-3-6-6-6-6-|
       PM      PM      PM      PM      

    eb|---------------------------|
    Bb|---------------------------|
GTR Gb|---------------------------|
1+2 Db|---------------------------| 
    Ab|-0-11-11-0-10-10-0-8--8--6-|
    Db|-0-13-13-0-12-12-0-10-10-8-|
       PM      PM      PM            

    eb|-----------------------------|
    Bb|-----------------------------|
GTR Gb|-----------------------------|
 1  Db|-0---------------------------| x3
    Ab|-0---5h6p5/3---5p3-2h3p2p0---|
    Db|-0---------------------------|

    eb|-----------------------------|
    Bb|-----------------------------|
GTR Gb|-----------------------------|
 2  Db|-0---------------------------| x3
    Ab|-0-------------------------0-|
    Db|-0-------------------------0-|
                                 PM

    eb|-----------------------------|
    Bb|-----------------------------|
GTR Gb|-----------------------------|
 1  Db|-0---------------------------| 
    Ab|-0---5h6p5/3---5p3-2h3p2p0---|
    Db|-0---------------------------|

    eb|--------------------------------|
    Bb|--------------------------------|
GTR Gb|--------------------------------|
 2  Db|-0------------------------------|
    Ab|-0------------------------0-0-1-|
    Db|-0------------------------0-0-1-|
                                 P M

    eb|-----------------------------------------------------|
    Bb|-5-5-5-5-5-5-5-5-5-5-5-5-5-5-5-5---------------------|
GTR Gb|-7-7-7-7-7-7-7-7-9-9-9-9-8-8-8-8---------------------|
1+2 Db|-0-0-0-0-0-0-0-0-0-0-0-0-0-0-0-0---------------------| x4
    Ab|-----------------------------------------0---------0-|
    Db|---------------------------------0h2p1p0-0-0h2p1p0-0-|

    eb|---------------------------------------------------------------|
    Bb|---------------------------------------------------------------|
GTR Gb|---------------------------------------------------------------|
1+2 Db|-------------------------------0-0-0-0-1-1-1-1-3-3-3-3-6-6-6-6-| x4
    Ab|-0-11-11-0-10-10-0-8--8--0-6-6-0-0-0-0-1-1-1-1-3-3-3-3-6-6-6-6-|
    Db|-0-13-13-0-12-12-0-10-10-0-8-8-0-0-0-0-1-1-1-1-3-3-3-3-6-6-6-6-|
       PM      PM      PM      PM      

    eb|---------------------------|
    Bb|---------------------------|
GTR Gb|---------------------------|
1+2 Db|---------------------------| 
    Ab|-0-11-11-0-10-10-0-8--8--6-|
    Db|-0-13-13-0-12-12-0-10-10-8-|
       PM      PM      PM            

    eb|-------------------------------------------------|
    Bb|-------------------------------------------12-12-|
GTR Gb|-------------------------------------------9--9--|
1+2 Db|-------------------------------------------10-10-| 1,3
    Ab|-0-0-0-0-0-2-2-1-1-0h1-7-7-6-6-7-7-0-0-0-0-------|
    Db|-0-0-0-0-0-0-0-0-0-0h1-7-7-7-7-7-7-0-0-0-0-------|
        P M P MPM                         P M P M

    eb|-------------------------------------------------|
    Bb|-------------------------------------------12-12-|
GTR Gb|-----------4-4-3-3-2h3---------------------9--9--|
1+2 Db|-----------2-2-2-2-2h2---------------------10-10-| 2,4
    Ab|-0-0-0-0-0-------------7-7-6-6-7-7-0-0-0-0-------|
    Db|-0-0-0-0-0-------------7-7-7-7-7-7-0-0-0-0-------|
        P M P MPM                         P M P M

    eb|-------------------|
    Bb|-------------------|
GTR Gb|-------------------|
 1  Db|-0---------7----12-| x2
    Ab|-0---------5----12-|
    Db|-0---------5----10-|

    eb|-----------0----3--|
    Bb|-----------3----3--|
GTR Gb|-----------0----0--|
 2  Db|-0---------5----0--| x2
    Ab|-0--------------3--|
    Db|-0-----------------|
 
    eb|----------------------------|
    Bb|----------------------------|
GTR Gb|----------------------------|
1+2 Db|-0--------------------------|
    Ab|-0--------------------------|
    Db|-0--------------------------|

    eb|--------------------|
    Bb|---5-0-------5------|
GTR Gb|-5---4-----5--------|
1+2 Db|-7---------7--------| x3
    Ab|--------------------|
    Db|---------------0----|

    eb|---------------|
    Bb|---5-0-------5-|
GTR Gb|-5---4-----5---|
1+2 Db|-7---------7---| 
    Ab|---------------|
    Db|---------------|

    eb|---------------------------------|
    Bb|------------5-5-5----------------|
GTR Gb|------------4-4-4--------------0-|
1+2 Db|------------0-0-0----------------|
    Ab|------------5-5-5----------2/3---|
    Db|-0000000000-------00000000-2/3---|
        PMPMPMPMPM       PMPMPMPM

    eb|------------------------------------------|
    Bb|------------5-5-5-------------------------|
GTR Gb|------------4-4-4----------9--9--9--9--9--|
1+2 Db|------------0-0-0----------10-10-10-10-10-|
    Ab|------------5-5-5----------8--8--8--8--8--|
    Db|-0000000000-------00000000-8--8--8--8--8--|
        PMPMPMPMPM       PMPMPMPM

---------------------------------

    eb|------7h8p7-3h5p3-|
    Bb|------------------|
GTR Gb|------------------|
1+2 Db|-0--0-------------| x4
    Ab|-0--0-------------|
    Db|-0--0-------------|

    eb|-----------------------|
    Bb|-----------------------|
GTR Gb|-9---------9-9---------|
 1  Db|-10-----10---10--------|
    Ab|-8-----------8-----0-0-|
    Db|-------------------0-0-|
                          P M

    eb|-----------------------|
    Bb|-----------------------|
GTR Gb|-9---------9-8BD-------|
 2  Db|-10-----10-------------|
    Ab|-8-----------------0-0-|
    Db|-------------------0-0-|
                          P M

PLAY SECTION x 3

------------------------------- 

    eb|------7h8p7-3h5p3-|
    Bb|------------------|
GTR Gb|------------------|
1+2 Db|-0--0-------------| x4
    Ab|-0--0-------------|
    Db|-0--0-------------|

    eb|-1,3,5,7|---2,6----|---4------|----8-----|
    Bb|--------|----------|----------|----------|
GTR Gb|--------|-10-10-10-|-9--9--9--|-12-12-12-|
1+2 Db|--------|-10-10-10-|-10-10-10-|-10-10-10-|
    Ab|--------|-8--8--8--|-8--8--8--|-8--8--8--|
    Db|-000000-|-8--8--8--|-8--8--8--|-8--8--8--|
        PMPMPM    

    eb|-1,3,5,7|---2,6----|---4------|----8-----|
    Bb|--------|----------|----------|-12-------|
GTR Gb|--------|-10-10-10-|-9--9--9--|-13-------|
1+2 Db|--------|-10-10-10-|-10-10-10-|-10-------|
    Ab|--------|-8--8--8--|-8--8--8--|-8--------|
    Db|-000000-|-8--8--8--|-8--8--8--|-8--------|
        PMPMPM    

    eb|-----------------------------------------------------|
    Bb|-5-5-5-5-5-5-5-5-5-5-5-5-5-5-5-5---------------------|
GTR Gb|-7-7-7-7-7-7-7-7-9-9-9-9-8-8-8-8---------------------|
1+2 Db|-0-0-0-0-0-0-0-0-0-0-0-0-0-0-0-0---------------------| x4
    Ab|-----------------------------------------0---------0-|
    Db|---------------------------------0h2p1p0-0-0h2p1p0-0-|

    eb|---------------------------|
    Bb|---------------------------|
GTR Gb|---------------------------|
1+2 Db|---------------------------| x3
    Ab|-0-11-11-0-10-10-0-8--8--6-|
    Db|-0-13-13-0-12-12-0-10-10-8-|
       PM      PM      PM     

    eb|-----------------------------|
    Bb|-----------------------------|
GTR Gb|-----------------------------|
1+2 Db|-----------------------------| 
    Ab|-0-11-11-0-10-10-0-8--8--0-1-|
    Db|-0-13-13-0-12-12-0-10-10-0-1-|
       PM      PM      PM     

END
Tap to rate this tab
 
# A B C D E F G H I J K L M N O P Q R S T U V W X Y Z