Song name
# A B C D E F G H I J K L M N O P Q R S T U V W X Y Z

Skycamefalling - Instrumental tab

SKYCAMEFALLING - INSTRUMENTAL

-------------------------------------------------

    eb|-----------------------------------------|
    Bb|-----------------------------------------|
GTR Gb|---7---9-----7---9---------9---9---9---9-|
 1  Db|---0-7-------0-7---------7---7---7---7---| 
    Ab|-0---------0---------8/7-0---------------|
    Db|-----------------------------------------|

    eb|-----------------------------------|
    Bb|-----------------------------------|
GTR Gb|-9-9h10p9------9---9---9-9h10p9----|
 1  Db|----------10-7---7---7----------10-|
    Ab|-------------0---------------------|
    Db|-----------------------------------|

PLAY SECTION x4
-------------------------------------------------
    
    eb|----------------------------------------|
GTR Gb|---7---9-----7---9---------9---9---9----|
 1  Db|---0-7-------0-7---------7---7---7---7--| 
    Ab|-0---------0---------8/7-0--------------|
    Db|----------------------------------------|

    eb|----------------------------------------|
    Bb|----------------------------------------|
GTR Gb|-10/9-9-9-9-9-9-9-9-9-9-9-9-9--10/9-9-9-|
 2  Db|-7--7-7-7-7-7-7-7-7-7-7-7-7-7--7--7-7-7-|
    Ab|----------------------------------------|
    Db|----------------------------------------|
             P M   P M   P M  PM           P M  

    eb|---------------------------------|
    Bb|---------------------------------|
GTR Gb|-9h10p9------9---9---9-9h10p9----|
 1  Db|--------10-7---7---7----------10-| 
    Ab|-----------0---------------------|
    Db|---------------------------------|

    eb|---------------------------------|
    Bb|---------------------------------|
GTR Gb|-9-9-9-9-9-9-9-10\9--------------|
 2  Db|-7-7-7-7-7-7-7-------------------| 
    Ab|---------------------------------|
    Db|---------------------------------|
          P M   P M  

PLAY SECTION x2
-------------------------------------------------

    eb|----------------------------------------|
GTR Gb|---7---9-----7---9---------9---9---9----|
 1  Db|---0-7-------0-7---------7---7---7---7--| 
    Ab|-0---------0---------8/7-0--------------|
    Db|----------------------------------------|

    eb|----------------------------------------|
    Bb|----------------------------------------|
GTR Gb|-10/9-9-9-9-9-9-9-9-9-9-9-9-9--10/9-9-9-|
 2  Db|-7--7-7-7-7-7-7-7-7-7-7-7-7-7--7--7-7-7-|
    Ab|----------------------------------------|
    Db|----------------------------------------|
             P M   P M   P M  PM           P M  

    eb|------------------------------------|
    Bb|------------------------------------|
GTR Gb|-9h10p9------9---9---9-9h10p9-------|
 1  Db|--------10-7---7---7----------12/10-| 
    Ab|-----------0------------------------|
    Db|------------------------------------|

    eb|---------------------------------|
    Bb|---------------------------------|
GTR Gb|-9-9-9-9-9-9-9-10/9--------------|
 2  Db|-7-7-7-7-7-7-7-------------------| 
    Ab|---------------------------------|
    Db|---------------------------------|
          P M   P M  

    eb|----------------------------------------|
GTR Gb|---7---9-----7---9---------9---9---9----|
 1  Db|---0-7-------0-7---------7---7---7---7--| 
    Ab|-0---------0---------8/7-0--------------|
    Db|----------------------------------------|

    eb|----------------------------------------|
    Bb|----------------------------------------|
GTR Gb|-10/9-9-9-9-9-9-9-9-9-9-9-9-9--10/9-9-9-|
 2  Db|-7--7-7-7-7-7-7-7-7-7-7-7-7-7--7--7-7-7-|
    Ab|----------------------------------------|
    Db|----------------------------------------|
             P M   P M   P M  PM           P M  

    eb|------------------------------------|
    Bb|------------------------------------|
GTR Gb|-9h10p9------9---9---9-9h10p9-------|
 1  Db|--------10-7---7---7----------10/12-| 
    Ab|-----------0------------------------|
    Db|------------------------------------|

    eb|---------------------------------|
    Bb|---------------------------------|
GTR Gb|-9-9-9-9-9-9-9-------------------|
 2  Db|-7-7-7-7-7-7-7-10/12-------------| 
    Ab|---------------------------------|
    Db|---------------------------------|
          P M   P M  

    eb|---------------------------|
    Bb|---------------------------|
GTR Gb|---9---9---9--9h10p9-------|
 1  Db|-7---7---7-----------10h12-| x2
    Ab|-0-------------------------|
    Db|---------------------------|

    eb|---------------------------|
    Bb|---------------------------|
GTR Gb|---9---9---9--9h10p9-------|
 1  Db|-7---7---7-----------10----| 
    Ab|-0-------------------------|
    Db|---------------------------|

END
Tap to rate this tab
# A B C D E F G H I J K L M N O P Q R S T U V W X Y Z