Song name
# A B C D E F G H I J K L M N O P Q R S T U V W X Y Z

Skycamefalling - With Paper Wings tab

SKYCAMEFALLING - WITH PAPER WINGS

    eb|-----------------------------------|
    Bb|-------10-10-10--------------------|
GTR Gb|-----------------------------------|    
1+2 Db|-------8--8--8---------------------| 1,3,5,7             
    Ab|-0-0-0-----------0-8\7-7-7-5-5-5-3-|
    Db|-0-0-0-----------0-8\7-7-7-5-5-5-3-|
        PMP M          PM


    eb|-----------------------------------|
    Bb|-------10-10-10--------------------|
GTR Gb|-----------------------------------|    
1+2 Db|-------8--8--8---------------------| 2,4,6,8             
    Ab|-0-0-0-----------0-3/5-5-5-5/7-7-8-|
    Db|-0-0-0-----------0-3/5-5-5-5/7-7-8-|
        PMP M          PM

    eb|-----------------------------------------|
    Bb|-8-8-8-8-8-8-------------------8---8-----|
GTR Gb|-8-8-8-8-8-8-------------------8---8-----|    
 1  Db|-6-6-6-6-6-6-5-----5-----------6---6-----|              
    Ab|-------------5-----5---6-6-6-8-------0-0-|
    Db|-------------5-----5---6-6-6-8-------0-0-|
                              P M P M       P M

    eb|-----------------------------------------|
    Bb|-----------------------------------------|
GTR Gb|-----------------------------------------|    
 2  Db|-------------5-----5-----------3---3-----|              
    Ab|-------------5-----5---6-6-6-8-3---3-0-0-|
    Db|-------------5-----5---6-6-6-8-3---3-0-0-|
                              P M P M       P M

    eb|-------------------------|
    Bb|-------------------8-8-8-|
GTR Gb|-------------------8-8-8-|     
 1  Db|-5-----5-----------6-6-6-| x2             
    Ab|-5-----5---6-6-6-8-------|
    Db|-5-----5---6-6-6-8-------|
                  P M P M

    eb|-------------------------|
    Bb|-------------------------|
GTR Gb|-------------------------|    
 2  Db|-5-----5-----------3-3-3-| x2              
    Ab|-5-----5---6-6-6-8-3-3-3-|
    Db|-5-----5---6-6-6-8-3-3-3-|
                  P M P M

    eb|----------------|
    Bb|----------------|
GTR Gb|----------------|    
1+2 Db|-5-----5--------|              
    Ab|-5-----5---5--6-|
    Db|-5-----5---5--6-|
                  P  M

    eb|-----------------------------------|
    Bb|-------10-10-10--------------------|
GTR Gb|-----------------------------------|    
1+2 Db|-------8--8--8---------------------| 1,3,5,7             
    Ab|-0-0-0-----------0-8\7-7-7-5-5-5-3-|
    Db|-0-0-0-----------0-8\7-7-7-5-5-5-3-|
        PMP M          PM


    eb|-----------------------------------|
    Bb|-------10-10-10--------------------|
GTR Gb|-----------------------------------|    
1+2 Db|-------8--8--8---------------------| 2,4,6,8             
    Ab|-0-0-0-----------0-3/5-5-5-5/7-7-8-|
    Db|-0-0-0-----------0-3/5-5-5-5/7-7-8-|
        PMP M          PM

    eb|-----------------------------------------|
    Bb|-8-8-8-8-8-8-------------------8---8-----|
GTR Gb|-8-8-8-8-8-8-------------------8---8-----|    
 1  Db|-6-6-6-6-6-6-5-----5-----------6---6-----|              
    Ab|-------------5-----5---6-6-6-8-------0-0-|
    Db|-------------5-----5---6-6-6-8-------0-0-|
                              P M P M       P M

    eb|-----------------------------------------|
    Bb|-----------------------------------------|
GTR Gb|-----------------------------------------|    
 2  Db|-------------5-----5-----------3---3-----|              
    Ab|-------------5-----5---6-6-6-8-3---3-0-0-|
    Db|-------------5-----5---6-6-6-8-3---3-0-0-|
                              P M P M       P M

    eb|-------------------------|
    Bb|-------------------8-8-8-|
GTR Gb|-------------------8-8-8-|     
 1  Db|-5-----5-----------6-6-6-| x2             
    Ab|-5-----5---6-6-6-8-------|
    Db|-5-----5---6-6-6-8-------|
                  P M P M

    eb|-------------------------|
    Bb|-------------------------|
GTR Gb|-------------------------|    
 2  Db|-5-----5-----------3-3-3-| x2              
    Ab|-5-----5---6-6-6-8-3-3-3-|
    Db|-5-----5---6-6-6-8-3-3-3-|
                  P M P M

    eb|----------------|
    Bb|----------------|
GTR Gb|----------------|    
1+2 Db|-5-----5--------|              
    Ab|-5-----5---5--6-|
    Db|-5-----5---5--6-|
                  P  M

    eb|-------------------------------------|
    Bb|-------------------------------------|
GTR Gb|-------------------------------------|    
1+2 Db|-5--6--5--0-0-6--5--0--0---5-5-5-5-5-| 1,3,4             
    Ab|-5--6--5--0-0-6--5--0--0---5-5-5-5-5-|
    Db|-5--6--5--0-0-6--5--0--0---5-5-5-5-5-|
                  PM         PM    PM   PM

    eb|-----------------------------|
    Bb|-----------------------------|
GTR Gb|-----------------------------|    
1+2 Db|-----------------------------| 1,3             
    Ab|-5-5-5-5-6-6-6-1-1-1-5-5-5-5-|
    Db|-5-5-5-5-6-6-6-1-1-1-5-5-5-5-|
        P M P M P M P M P M P M

    eb|-------------------------------------|
    Bb|-------------------------------------|
GTR Gb|-------------------------------------|    
1+2 Db|-5--6--5--0-0-6--5--0--0---5-5-5-5-5-| 2             
    Ab|-5--6--5--0-0-6--5--0--0---5-5-5-5-5-|
    Db|-5--6--5--0-0-6--5--0--0---5-5-5-5-5-|
                  PM         PM    PM   PM

    eb|-------------------------------|
    Bb|-------------------------------|
GTR Gb|-------------------------12-12-|    
1+2 Db|-------------------------12-12-| 2,4             
    Ab|-5-5-5-5-6-6-6-1-1-1-5-5-10-10-|
    Db|-5-5-5-5-6-6-6-1-1-1-5-5-10-10-|
        P M P M P M P M P M P M

    eb|---------------- x2 -----------------------------------|
    Bb|-------------------------------------------------------|
GTR Gb|-------------------------------------------------------|    
1+2 Db|-6-6-6-6-6-6-6-6-6-6-6-6-6-5-5-5-5-5-5-5-5-5-5-5-5-5-5-|              
    Ab|-6-6-6-6-6-6-6-6-6-6-6-6-6-5-5-5-5-5-5-5-5-5-5-5-5-5-5-|
    Db|-6-6-6-6-6-6-6-6-6-6-6-6-6-5-5-5-5-5-5-5-5-5-5-5-5-5-5-|

    eb|-------------------------------------------------------|
    Bb|-8-8-8-8-898-8-8-8-8-8-898-8-8-8-8-8-898-6-6-8-8-8-898-|
GTR Gb|-7-7-7-7-777-7-7-7-7-7-777-7-7-7-7-7-777-7-7-7-7-7-777-|    
1+2 Db|-6-6-6-6-666-6-6-6-6-6-666-5-5-5-5-5-555-5-5-5-5-5-555-|              
    Ab|-6-6-6-6-666-6-6-6-6-6-666-5-5-5-5-5-555-5-5-5-5-5-555-|
    Db|-6-6-6-6-666-6-6-6-6-6-666-5-5-5-5-5-555-5-5-5-5-5-555-|

    eb|-------------------------------------------------------|
    Bb|-8-8-8-8-898-8-8-8-8-8-898-8-8-8-8-8-898-6-6-6-6-6-6-6-|
GTR Gb|-7-7-7-7-777-7-7-7-7-7-777-7-7-7-7-7-777-7-7-7-7-7-7-7-|    
1+2 Db|-6-6-6-6-666-6-6-6-6-6-666-5-5-5-5-5-555-5-5-5-5-5-5-5-|              
    Ab|-6-6-6-6-666-6-6-6-6-6-666-5-5-5-5-5-555-5-5-5-5-5-5-5-|
    Db|-6-6-6-6-666-6-6-6-6-6-666-5-5-5-5-5-555-5-5-5-5-5-5-5-|

    eb|-----------------------------------------------|
    Bb|-----------------------------------------------|
GTR Gb|-------------------5-5-5-8---------------------|    
1+2 Db|-06----------------5-5-5-8-----5-5-5-5-6-6-6-6-| 1,3             
    Ab|-06--------------0-3-3-3-6-----5-5-5-5-6-6-6-6-|
    Db|-06--6p5-5p3-3p0-0-3-3-3-6-1p0-5-5-5-5-6-6-6-6-|
       PM              PM

    eb|-----------------------------------------------------|
    Bb|-----------------------------------------------------|
GTR Gb|-------------------5-5-5-8---------------------------|    
1+2 Db|-06----------------5-5-5-8-----1-1-1-1-1-1-1-1-1-1-1-| 2             
    Ab|-06--------------0-3-3-3-6-----1-1-1-1-1-1-1-1-1-1-1-|
    Db|-06--6p5-5p3-3p0-0-3-3-3-6-1p0-1-1-1-1-1-1-1-1-1-1-1-|
       PM              PM

    eb|---------------------------------------------|
    Bb|---------------------------------------------|
GTR Gb|-------------------5-5-5-8-------------------|    
1+2 Db|-06----------------5-5-5-8-----1-1-1-1-1-1-1-| 4             
    Ab|-06--------------0-3-3-3-6-----1-1-1-1-1-1-1-|
    Db|-06--6p5-5p3-3p0-0-3-3-3-6-1p0-1-1-1-1-1-1-1-|
       PM              PM

    eb|----------------- x4 ----------------------------------|
    Bb|-------------------------------------------------------|
GTR Gb|----------7-----7---5-5-5------------------------------|    
 1  Db|------6---6-----6---6-6-6------------------------------|              
    Ab|------6-6-6-----6---6-6-6-5-5-5-5-5-5-5-5--------------|
    Db|-666666-6-6-6-6-6-6-6-6-6-5-5-5-5-5-5-5-5--------------|
        PMPMPM PM   P M  PM       P M P M P M P M

    eb|------------------ x4 ---------------------3----5-----3-3-|
    Bb|---------------------------------------------0----5---3-3-|
GTR Gb|-----------7-----7---5-5-5--------------------------0-----|    
 2  Db|-------6---6-----6---6-6-6--------------------------------|           
    Ab|-------6-6-6-----6---6-6-6-5-5-5-5-5-5-0------------------|
    Db|-6666666-6-6-6-6-6-6-6-6-6-5-5-5-5-5-5-0------------------|
        PMPMPM PM   P M  PM       P M P M P MPMPM   

    eb|------------------|
    Bb|------------------|
GTR Gb|-12---------------|    
 1  Db|-10---------------| x4              
    Ab|-11-------5-5-5-5-|
    Db|-10-------5-5-5-5-|
                 P M P M

    eb|------------------|
    Bb|------------------|
GTR Gb|------------------|    
 2  Db|-6----------------| x4              
    Ab|-6--------5-5-5-5-|
    Db|-6--------5-5-5-5-|
                 P M P M

----------------------------------------------------------

    eb|------------------|
    Bb|------------------|
GTR Gb|-12---------------|    
 1  Db|-10---------------| x3              
    Ab|-11-------5-5-5-5-|
    Db|-10-------5-5-5-5-|

    eb|------------------|
    Bb|------------------|
GTR Gb|------------------|    
 2  Db|-6----------------| x3             
    Ab|-6--------5-5-5-5-|
    Db|-6--------5-5-5-5-|                 x3
                 
    eb|------------------|
    Bb|------------------|
GTR Gb|-12---------------|    
 1  Db|-10---------------|             
    Ab|-11-------5-5-5-5-|
    Db|-10-------5-5-5-5-|
                 P M P M

    eb|------------------|
    Bb|------------------|
GTR Gb|------------------|    
 2  Db|-6----------------|               
    Ab|-6--------5-5-5-5-|
    Db|-6--------5-5-5-5-|
                 P M P M

----------------------------------------------------------- 

    eb|--------------|
    Bb|--------------|
GTR Gb|--------------|    
1+2 Db|-6------------|              
    Ab|-6-(let ring)-|
    Db|-6------------|

END   
Tap to rate this tab
# A B C D E F G H I J K L M N O P Q R S T U V W X Y Z