Song name
# A B C D E F G H I J K L M N O P Q R S T U V W X Y Z

Skycamefalling - Laura Palmer tab

SKYCAMEFALLING - LAURA PALMER


    Eb|-------------------------|
    Bb|-----------3-----------3-|
GTR Gb|-----------6-----------6-| x4
1+2 Db|-------------------------|              
    Ab|-0-0---0-0-5-0-0---0-0-5-|
    Db|-0-0---0-0---0-0---0-0---|
        P M   P M   P M   P M


    Eb|-------------------------------------------------------|
    Bb|-------------------------------------------------------|
GTR Gb|------------------------------------------6------------|    
1+2 Db|------------------------------------------4----------4-| x4           
    Ab|---------------------------------4-4--4-4-4-4-4--4-4-4-|
    Db|-4h5-4p0-4h7-4p0-4h5-4p0-4h7-4p0-4-4--4-4-4-4-4--4-4-4-|
                                        P M  P M   P M  P M

    Eb|-------------------------|
    Bb|-----------3-----------3-|
GTR Gb|-----------6-----------6-| x4
1+2 Db|-------------------------|              
    Ab|-0-0---0-0-5-0-0---0-0-5-|
    Db|-0-0---0-0---0-0---0-0---|
        P M   P M   P M   P M

    Eb|-------------------------------------------------------|
    Bb|-------------------------------------------------------|
GTR Gb|------------------------------------------6------------|    
1+2 Db|------------------------------------------4----------4-| x3           
    Ab|---------------------------------4-4--4-4-4-4-4--4-4-4-|
    Db|-4h5-4p0-4h7-4p0-4h5-4p0-4h7-4p0-4-4--4-4-4-4-4--4-4-4-|
                                        P M  P M   P M  P M

    Eb|--------------------------------------------------------|
    Bb|--------------------------------------------------------|
GTR Gb|------------------------------------------6-------------|    
1+2 Db|------------------------------------------4----------9--|             
    Ab|---------------------------------4-4--4-4-4-4-4--4-4-7--|
    Db|-4h5-4p0-4h7-4p0-4h5-4p0-4h7-4p0-4-4--4-4-4-4-4--4-4-9--|
                                        P M  P M   P M  P M

    Eb|-------------------------------|
    Bb|-------------------------------|
GTR Gb|-------------------------------| x3
1+2 Db|---------4-7-4---------4-5-4---|              
    Ab|-4-5-4-0-2-5-2---4-5-4-2-3-2-2-|
    Db|-4-5-4-0---------4-5-4-------2-|

    Eb|-------------------------|
    Bb|-------------------------|
GTR Gb|-------------------------| 
1+2 Db|---------4-7-4---------4-|              
    Ab|-4-5-4-0-2-5-2---2-3-2-2-|
    Db|-4-5-4-0---------2-3-2---|
                        PM PM


    Eb|-------------------------------|
    Bb|-------------------------------|
GTR Gb|-------------------------------| x4
1+2 Db|---------4-7-4---------4-5-4---|              
    Ab|-4-5-4-0-2-5-2---4-5-4-2-3-2-2-|
    Db|-4-5-4-0---------4-5-4-------2-|
        P M P M         PM PM


PLAY THE FOLLOWING GTR 1 PART THROUGHOUT THIS WHOLE SECTION:

    Eb|------x2-----|---------------------------|
    Bb|-------------|---------------------------|
GTR Gb|-------------|-------------------------0-|    
 1  Db|--------11---|---------11-11--------11---|             
    Ab|-10p9-9----9-|-9-9-10p9------9-10p9------|
    Db|-------------|---------------------------|

    Eb|------x2-----|----------------------------------|
    Bb|-------------|----------------------------------|
GTR Gb|-------------|----------------------14----14/13-|    
 1  Db|--------11---|----------12----12----------------|              
    Ab|-10p9-9----9-|-9-9/10-10---10----10----12-------|
    Db|-------------|----------------------------------|

    Eb|----------------------------------------5---5---5/4-|
    Bb|-----5-----------5---0-----5------------------------|
GTR Gb|---6---6---6---6---6-6---6---6---6-7-7----7---7-----|    
 2  Db|-4-------4---4---------4-------4--------------------|              
    Ab|----------------------------------------------------|
    Db|----------------------------------------------------|

    Eb|----------------------------------------5---5-5-5/77-|
    Bb|-----5----0-----5-----------0------------------------|
GTR Gb|---6---6--6---6---6---6---6---6---6-7-7---7----------|    
 2  Db|-4----------4-------4---4-------4--------------------|              
    Ab|-----------------------------------------------------|
    Db|-----------------------------------------------------|

    Eb|----------------------------------------5---5-5-5/4-|
    Bb|-----5----0-----5-----------0---6-------------------|
GTR Gb|---6---6--6---6---6---6---6---6-0---7-7---7---------|    
 2  Db|-4----------4-------4---4---------------------------|              
    Ab|----------------------------------------------------|
    Db|----------------------------------------------------|

----------------------------------------------------
    
    Eb|------x2-----|---------------------------|
    Bb|-------------|---------------------------|
GTR Gb|-------------|-------------------------0-|    
 1  Db|--------11---|---------11-11--------11---|              
    Ab|-10p9-9----9-|-9-9-10p9------9-10p9------|
    Db|-------------|---------------------------|

    Eb|------x2-----|-------------------|
    Bb|-------------|-------------------|
GTR Gb|-------------|----------------11-|    
 1  Db|--------11---|----------12----0--|              
    Ab|-10p9-9----9-|-9-9/10-10---10----|
    Db|-------------|-------------------|

-----------------------------------------------------

    Eb|--------------------------------------------|
    Bb|-----5----0-----5-----------0---------------|
GTR Gb|---6---6--6---6---6---6---6---6---6-7-7--11-|    
 2  Db|-4----------4-------4---4-------4--------0--|              
    Ab|--------------------------------------------|
    Db|--------------------------------------------|

    Eb|-----------------------------|
    Bb|-----------------------------|
GTR Gb|-----------------------------| x3   
1+2 Db|-4-4-4-4-4-0-4-4-4-4-0-4-4-4-|              
    Ab|-4-4-4-4-4-0-4-2-2-2-0-2-2-2-|
    Db|-4-4-4-4-4-0-4---------------|

    Eb|---------------|
    Bb|---------------|
GTR Gb|---------------|    
1+2 Db|-4-4-4-4-5-5-0-|              
    Ab|-4-4-4-4-5-5-0-|
    Db|-4-4-4-4-5-5-0-|

    Eb|------------------------------|
    Bb|------------------------------|
GTR Gb|------------------------------| 1,3 
1+2 Db|-4-4-4-4-4-4-0-4-4----4-4-4-0-|              
    Ab|-4-4-4-4-4-4-0-2-2-00-2-2-2-0-|
    Db|-4-4-4-4-4-4-0-----00---------|
                          PM

    Eb|-----------------------------|
    Bb|-----------------------------|
GTR Gb|-----------------------------| 2 
1+2 Db|-4-4-4-4-4-4-0-4-4-0--4-4-0--|              
    Ab|-4-4-4-4-4-4-0-2-2-0--2-2-0--|
    Db|-4-4-4-4-4-4-0---------------|

    Eb|---------------|
    Bb|---------------|
GTR Gb|---------------|    
1+2 Db|-4-4-4-4-5-5-0-| 4              
    Ab|-4-4-4-4-5-5-0-|
    Db|-4-4-4-4-5-5-0-|


    Eb|-----------------------------|
    Bb|-----------------------------|
GTR Gb|-----------------------------| x7  
 1  Db|-----------------------------|              
    Ab|-4444---------4444-----------|
    Db|-4444---------4444-----------|
        PMPM         PMPM

    Eb|-----------------------------|
    Bb|---------8-7-----------------|
GTR Gb|---------------------6-6-4-7-| x7   
 2  Db|-----------------------------|              
    Ab|-----------------------------|
    Db|-----------------------------|


    Eb|-----------------------------|
    Bb|-----------------------------|
GTR Gb|-----------------------------|   
 1  Db|-----------------------------|              
    Ab|-4444---------4444-----------|
    Db|-4444---------4444-----------|
        PMPM         PMPM

    Eb|-----------------------------|
    Bb|---------8-7-----------------|
GTR Gb|-----------------------------|  
 2  Db|-----------------------------|              
    Ab|-----------------------------|
    Db|-----------------------------|

    Eb|-----------------------------|
    Bb|-----------------------------|
GTR Gb|-----------------------------| 1,5  
1+2 Db|-4-4-4-4-4-4-0-4-4-0--4-4-0--|              
    Ab|-4-4-4-4-4-4-0-2-2-0--2-2-0--|
    Db|-4-4-4-4-4-4-0---------------|

    Eb|-----------------------------|
    Bb|-----------------------------|
GTR Gb|-----------------------------| 2,6 
1+2 Db|-4-4-4-4-4-4-0--444-0--444-0-|              
    Ab|-4-4-4-4-4-4-0--222-0--222-0-|
    Db|-4-4-4-4-4-4-0---------------|
                       PM    PM 

    Eb|-----------------------------|
    Bb|-----------------------------|
GTR Gb|-----------------------------| 3,7 
1+2 Db|-4-4-4-4-4-4-0-4444-4-0--4-0-|              
    Ab|-4-4-4-4-4-4-0-2222-2-0--2-0-|
    Db|-4-4-4-4-4-4-0---------------|

    Eb|---------------|
    Bb|---------------|
GTR Gb|---------------| 4,8    
1+2 Db|-4-4-4-4-5-5-0-|              
    Ab|-4-4-4-4-5-5-0-|
    Db|-4-4-4-4-5-5-0-|

    Eb|---------------------------------|
    Bb|---------------------------------|
GTR Gb|---------------------------------|    
 1  Db|---------------------------------| x3              
    Ab|-4444------------------------040-|
    Db|-4444------------------------040-|
        PMPM                        PMPM

    Eb|---------------------------------|
    Bb|-----------------7*----7*--------|
GTR Gb|----------5*-----------------7*--| x3
 2  Db|-------------4*------------------|              
    Ab|--------------------4*----4*-----|
    Db|-------5*------------------------|

    Eb|---------------------------------|
    Bb|---------------------------------|
GTR Gb|---------------------------------|    
 1  Db|---------------------------------|               
    Ab|-4444------------------------040-|
    Db|-4444------------------------040-|
       PMPM                        PMPM

    Eb|---------------------------------|
    Bb|-----------------7*----7*--------|
GTR Gb|-----------------------7*--------| 
 2  Db|----------4*--------4*-----------|              
    Ab|---------------------------------|
    Db|-------5*----4*------------------|

    Eb|----------------|
    Bb|----------------|
GTR Gb|----------------|    
 1  Db|----------------| x8           
    Ab|-444--------040-|
    Db|-444--------040-|
        P M        PMPM

    Eb|----------------|
    Bb|--------3-------|
GTR Gb|--------6-------| x8   
 2  Db|----------------|              
    Ab|--------5-------|
    Db|----------------|

REPEAT HARMONICS SECTION, THEN

    Eb|----------------|
    Bb|----------------|
GTR Gb|----------------|    
 1  Db|----------------| x7       
    Ab|-444--------040-|
    Db|-444--------040-|
        P M        PMPM

    Eb|----------------|
    Bb|--------3-------|
GTR Gb|--------6-------| x7
 2  Db|----------------|              
    Ab|--------5-------|
    Db|----------------|

    Eb|-----|
    Bb|-----|
GTR Gb|-----|    
1+2 Db|-0---|              
    Ab|-0---|
    Db|-0---|

    Eb|--------------|
    Bb|--------------|
GTR Gb|--------------| x8   
1+2 Db|-4-4--5--4--0-|              
    Ab|-4-4--5--4--0-|
    Db|-4-4--5--4--0-|

    Eb|-----------------------|
    Bb|-----------------------|
GTR Gb|-----------------------|    
 1  Db|-5/4---4-5-4-5/4-----4-|              
    Ab|-5/4---4-5-4-5/4-----4-|
    Db|-5/4---4-5-4-5/4-----4-|

    Eb|-----------------------|
    Bb|-----8-7---------------|
GTR Gb|----------------6-6/7--|    
 2  Db|---------5--5/4--------|              
    Ab|---------5--5/4--------|
    Db|---------5--5/4--------|

    Eb|-----------------------|
    Bb|-----------------------|
GTR Gb|-----------------------|    
1+2 Db|-44-0------------------|              
    Ab|-44-0------------------|
    Db|-44-0------------------|
        PM

END




Tap to rate this tab
# A B C D E F G H I J K L M N O P Q R S T U V W X Y Z