Song name
# A B C D E F G H I J K L M N O P Q R S T U V W X Y Z

Skydiggers - What Do You See tab

================================================================
                    What do You See?- Skydiggers
================================================================
                     As recorded by Skydiggers
                 (From the 1995 Album Road Radio)

Words and Music by Skydiggers


Tuning: (E A D G B e) - 'Standard Tuning'


Legend
. = Palm Mute


Main Riff:

e-2--3--3--3--2------------3-----|
B-3--3--3--3--3------------3-----|
G-2--2--2--2--2--------0---0-----|
D--------------------2-----0-----| x4
A----------------0-4-------2-----|
E--------------------------3-----|

Verse (Play twice):

e---2---2--2--2--2--2--2---3---3--3---2---2--2-----|
B---3---3--3--3--3--3--3---3---3--3---3---3--3-----|
G---2---2--2--2--2--2--2---0---0--0---2---2--2-----|
D---0---0--0--0--0--0--0---0---0--0---0---0--0-----|
A--------------------------x---x--x----------------|
E--------------------------3---3--3----------------|
    .   .  .  .  .  .          .          .  


e---2---2--2--2--2--2--2--------------3---3--3-----|
B---3---3--3--3--3--3--3---2---2--2---3---3--3-----|
G---2---2--2--2--2--2--2---2---2--2---0---0--0-----|
D---0---0--0--0--0--0--0---2---2--2---0---0--0-----|
A--------------------------0---0--0---x---x--x-----|
E-------------------------------------3---3--3-----|
    .   .  .  .  .  .          .          .  



Chorus:

e--------------------2---2--2--------------3--3-----------|
B---2----------2-2---3---3--3---2----------3--3---2---2---|
G---2----------2-2---2---2--2---2----------0--0---2---2---|
D---2----------2-2---0---0--0---2----------0--0---2---2---|
A---0----------0-0--------------0----------x--x---0---0---|
E------------------------------------------3--3-----------|


Then Main Riff


Then play this:

e--------------------2---2--2---------|
B---2----------2-2---3---3--3---2-----|
G---2----------2-2---2---2--2---2-----| x2
D---2----------2-2---0---0--0---2-----|
A---0----------0-0--------------0-----|
E-------------------------------------|

e--------------------2---2--2--------------3--3-----------|
B---2----------2-2---3---3--3---2----------3--3---2---2---|
G---2----------2-2---2---2--2---2----------0--0---2---2---|
D---2----------2-2---0---0--0---2----------0--0---2---2---|
A---0----------0-0--------------0----------x--x---0---0---|
E------------------------------------------3--3-----------|


Then Main Riff 



Then the interlude:

Part I:

e---3----3---3-----------------------2----2---2--2---3---3--3---3---|
B---3----3---3----2----2---2---2-----3----3---3--3---3---3--3---3---|
G---0----0---0----2----2---2---2-----2----2---2--2---0---0--0---0---|
D---0----0---0----2----2---2---2-----0----0---0--0---0---0--0---0---|
A---x----x---x----0----0---0---0---------------------x---x--x---x---|
E---3----3---3---------------------------------------3---3--3---3---|

Part II:
                        Let Ring                             Let Ring
                     |--------------|                     |--------------| 
e---3----3---3--------------0-----------3----3---3---------------0---------|
B---3----3---3----2------2-----2--------3----3---3----2-------2-----2------|
G---0----0---0----2---2-----------2-----0----0---0----2----2-----------2---|
D---0----0---0----2---------------------0----0---0----2--------------------|
A---x----x---x----0---------------------x----x---x----0--------------------|
E---3----3---3--------------------------3----3---3-------------------------|


Then Main Riff

Then Verse

Then Chorus

Then Main Riff

Then Interlude (Play an extra half of Part II)

Then Main Riff untill the song ends



And thats it! Please rate and comment!
Tap to rate this tab
# A B C D E F G H I J K L M N O P Q R S T U V W X Y Z