Song name
# A B C D E F G H I J K L M N O P Q R S T U V W X Y Z

Skye Sweetnam - Queen Of The Waves tab

intro (0.15-0.30)
E-----------------------|
B-----------------------|
G--5---5--7--99999999---|
D--3---3--5--77777777---|
A-----------------------|
E-----------------------|

chorus (0.30-0.43)
E---------------------------------------------|
B--888887-7-----------------------------------|
G--777777-7-----------------------------------|
D-----------55555-7-55-----44445-5-44444544---|
A-----------55555-7-55-----55555-5-55555555---|
E---------------------------------------------|

synth (0.49-0.53)
E---------------------------------------------|
B---8--8-10-7---------------------------------|
G-7-----------7---5-7~~~----------------------|
D---------------7-----------------------------|
A---------------------------------------------|
E---------------------------------------------|

(1.05-1.10)
E---------------------------------------------|
B---------------------------------------------|
G--5------------------------------------------|
D--3--10-12-10-12-10-12-10-12~~~--------------|
A---------------------------------------------|
E---------------------------------------------|

E-----------------------|
B-----------------------|
G--5---5--7--99999999---|
D--3---3--5--77777777---|
A-----------------------|
E-----------------------|

chorus (1.20-1.30)
E---------------------------------------------|
B--888887-7-----------------------------------|
G--777777-7-----------------------------------|
D-----------55555-7-55-----44445-5-44444544---|
A-----------55555-7-55-----55555-5-55555555---|
E---------------------------------------------|

synth (1.37-1.41)
E---------------------------------------------|
B---8--8-10-7---------------------------------|
G-7-----------7---5-7~------------------------|
D---------------7-----------------------------|
A---------------------------------------------|
E---------------------------------------------|

chorus (1.50-2.15)
E--------------------------------------------------|
B-10-10-10-10-10-9--9------------------------------|
G-9--9--9--9--9--9--9-77777-9-77--66667-7-66666766-|
D---------------------77777-9-77--77777-7-77777777-|
A--------------------------------------------------|
E--------------------------------------------------|

synth (2.15-2.26)
E---------------------------------------------|
B---10--10-12-9-------------------------------|
G-9-----------9---7-9~~~----------------------|
D---------------9-----------------------------|
A---------------------------------------------|
E---------------------------------------------|
Tap to rate this tab
# A B C D E F G H I J K L M N O P Q R S T U V W X Y Z