Song name
# A B C D E F G H I J K L M N O P Q R S T U V W X Y Z

Skyforger - Oh Fog Oh Dew tab

Standard E Tuning 
 
riff A (acoustic) 
|-----------------------------------------------------| 
|-----8-8--------------------8-8----------------------| 
|-7-7-----10-10p9p7---7h9h10-----10-10p9p7------------| 
|-----------------------------------------------------| 
|-----------------------------------------------------| 
|-----------------------------------------------------| 
 
riff B  
|-----------------------------------------------------| 
|------------------------------8-8--------------------| 
|-7-7-------10-10p9p7---7h9h10-----10-10p9p7----------| 
|-----10-10-------------------------------------------| 
|-----------------------------------------------------| 
|-----------------------------------------------------| 
 
riff C (0:11) 
|-----------------------------------------------------| 
|-----------------------------------------------------| 
|-6-6--8-8--6--6h-------------------------------------| 
|-7-7--7-7--7-----9p7---------------------------------| 
|-----------------------------------------------------| 
|-----------------------------------------------------| 
 
riff D  
|-----------------------------------------------------| 
|---------8-8-6--6h-----------------------------------| 
|-7h9h10--7-7-7-----9p7-------------------------------| 
|-----------------------------------------------------| 
|-----------------------------------------------------| 
|-----------------------------------------------------| 
 
riff E (0:16) 
|-----------------------------------------------------| 
|-----------------------------------------------------| 
|-6-----6--8-8--6--6h---------------------------------| 
|-7-6h7-7--7-7--7-----9p7-----------------------------| 
|-----------------------------------------------------| 
|-----------------------------------------------------| 
 
repeat riff D 1x (0:19) 
repeat riff C 1x (0:22) 
repeat riff D 1x 
 
riff F (0:26) 
|-----------------------------------------------------| 
|-----------------------------------------------------| 
|-6-6-6-----------------------------------------------| 
|-7-7-7-----------------------------------------------| 
|-----------------------------------------------------| 
|-----------------------------------------------------| 
 
riff G (0:30) 
|-----------------------------------------------------| 
|-----------------------------------------------------| 
|-6-6-6-6----------6----------------------------------| 
|-7-7-7-7--5-5-5-7-7----------------------------------| 
|-----------------------------------------------------| 
|-----------------------------------------------------| 
						(4x) 
riff H (0:50) 
|-----------------------------------------------------| 
|---10-10-10p8-10-10--10----8-10-10-------------------| 
|-7----------------------10---------------7-----------| 
|-----------------------------------10-10-------------| 
|-----------------------------------------------------| 
|-----------------------------------------------------| 
 
|-----------------------------------------------------| 
|---10-10-10p8-10-10--10----8-10-10-------------------| 
|-7----------------------10---------9h10p9-10---------| 
|-----------------------------------------------------| 
|-----------------------------------------------------| 
|-----------------------------------------------------| 
 
riff I (1:00) 
|--------------------------------------------------------| 
|--------10p8h-------------------------10-10--10---------| 
|-10p9p7-------10-9-9-10p9p7----10p9p7-----------------7-| 
|------------------------------------------------10-10---| 
|--------------------------------------------------------| 
|--------------------------------------------------------| 
 
riff J  
|----------------------------------------------8-10---| 
|--------10p8h-------------------------10-10p8--------| 
|-10p9p7-------10-9-9-10p9p7----10p9p7----------------| 
|-----------------------------------------------------| 
|-----------------------------------------------------| 
|-----------------------------------------------------| 
 
repeat riff G 4x (1:13) 
repeat riff H 1x (1:36) 
repeat riff I 1x  
 
riff K (1:56) 
|-----------------------------------------------------| 
|---------10p8h-----10-10-----------------------------| 
|-10p9p7--------10------------------------------------| 
|-------------------------7---------------------------| 
|-----------------------------------------------------| 
|-----------------------------------------------------| 
 
riff L (distortion) 
|-----------------------------------------------------| 
|-----------------------------------------------------| 
|-----------------------------------------------------| 
|-7-----5---------------------------------------------| 
|-5--8--3--5---77-77-77-77----------------------------| 
|----6-----3---55-55-55-55----------------------------| 
             p.m..........			(1x) 
 
riff M (2:01) 
|-----------------------------------------------------| 
|-----------------------------------------------------| 
|----------------------------------------5~-7-5-------| 
|-------------7-5h------------------------------8-----| 
|-5-5--8p7p5-------8---------5-5--8p7p5---------------| 
|--------------------6/8------------------------------| 
 
|-----------------------------------------------------| 
|-----------------------------------------------------| 
|-----------------------------------------------------| 
|-------------7-5h-----------7-7~---------------------| 
|-5-5--8p7p5-------8--------------7~------------------| 
|--------------------6/8------------------------------| 
						(4x) 
riff N (2:44) 
|-----------------------------------------------------| 
|-----------------------------------------------------| 
|-----------------------------------------------------| 
|-5/7-7-7---5/7-7-5/7--5/7-7-5/7---7-5-5-7------------| 
|-3/5-5-5---3/5-5-3/5--3/5-5-3/5---5-3-3-5------------| 
|-----------------------------------------------------| 
						(4x) 
riff O (3:06) 
|-----------------------------------------------------| 
|-----------------------------------------------------| 
|-----------------------------------------------------| 
|-5/7-7---5/7-7--5-555-5--5/7-7-7---------------------| 
|-3/5-5---3/5-5--3-333-3--3/5-5-5---------------------| 
|-----------------------------------------------------| 
						(4x) 
repeat riff N 4x (3:27) 
repeat riff O 1x (3:39) 
 
riff P 
|-----------------------------------------------------| 
|-----------------------------------------------------| 
|----------------5-555-5------------------------------| 
|-5/7-7---5/7-7--3-333-3--5/7-7-7---------------------| 
|-3/5-5---3/5-5-----------3/5-5-5---------------------| 
|-----------------------------------------------------| 
						(1x) 
repeat riff N 1x 
repeat riff P 1x 
repeat riff M 2x (3:59) 
repeat riff L 1x (4:20) 
 
riff Q (acoustic) (4:25) 
|-----------------------------------------------------| 
|-----10-10-------10-10------10-10--------------------| 
|--7---------7h10--------5/7--------------7-----------| 
|-10--------------------------------10-10-------------| 
|-----------------------------------------------------| 
|-----------------------------------------------------| 
						(4x) 
riff R (4:47) 
|-----------------------------------------------------| 
|-----------------------------------------------------| 
|-----------------------------------------------------| 
|-7/10--7-7-7-10----7/10------------------------------| 
|-5/-8--5-5-5--8----5/-8-3h5-5p3h5-6-5----------------| 
|-----------------------------------------------------| 
        . . .					(4x) 
 
riff S (acoustic) (repeat riff O 4x, distortion) (5:09) 
|------------------------------------------------------| 
|---10-10--10h11p10-8h10--10h11p10-8h10----------------| 
|-7-------------------------------------10-9h10p9----7-| 
|-------------------------------------------------10---| 
|------------------------------------------------------| 
|------------------------------------------------------| 
 
repeat riff M 2x (5:30) 
repeat riff O 4x (5:51) 
repeat riff N 4x (6:12) 
repeat riff C 1x (6:34) (acoustic) (till end of song)
Tap to rate this tab
 
# A B C D E F G H I J K L M N O P Q R S T U V W X Y Z