Song name
# A B C D E F G H I J K L M N O P Q R S T U V W X Y Z

Skyhooks - Horror Movie tab

Horror movie

intro and verse
                                   (x3)                           (x2)  1st ^   2nd ^   
e|------------------------------------||-----------------------------|-----|--------|
B|------------------------------------||-----------------------------|-----|---10^--|
G|------------------------------------||-----------------------------|--7^-|--------|
D|-----9-9-9-9-----------------5~~----||------7-7-7-7--5-------------|-----|--------|
A|-----7-7-7-7------5------7--------7-||------------------7---5---7--|-----|--------|
E|----0-0-0-0-0-----------------------||-----------------------------|-----|--------|
      x x x x x 



Watch a horror movie right there on my TV

Horror movie right there on my TV

Horror movie right there on my TV

Shockin' me right out of my brain

Shockin' me right out of my brain       x2



                     
e|------------------|
B|------------------|
G|------------------|
D|-14--14--14--14---| x3
A|-12--12--12--12---|
E|------------------|It's bound to get ya in, get ya under your skin

                     It's bound to get ya in, get ya under your skin

                     Hit you right on the chin, oh yeah
       
e|------------------|
B|------------------|
G|------------------|
D|---9--11--12---13-|
A|-7--9---10---11---|
E|------------------|

                    
e|------------------|
B|------------------|
G|------------------|
D|-14--14--14--14---| x3
A|-12--12--12--12---|
E|------------------| 

It's bound to be a thriller, it's bound to be a chiller

It's bound to be a killer, oh yeah

       
e|------------------|
B|------------------|
G|------------------|
D|---9--11--12---13-|
A|-7--9---10---11---|
E|------------------|






Watch a horror movie right there on my TV

Horror movie right there on my TV

Horror movie right there on my TV

Shockin' me right out of my brain

Shockin' me right out of my brain



The planes are a-crashin', the cars are a-smashin'

They come for a-bashin', oh yeah

The kids are a-fightin', the fires are a-lighti'

The dogs are a-bitin', oh yeah



Watch a horror movie right there on my TV

Horror movie right there on my TV

Horror movie right there on my TV

Shockin' me right out of my brain

Shockin' me right out of my brain


Break

e|----------------------------------------------|
B|----------------------------------------------|
G|--/9--7-6-------------------------------------|
D|-----------9--7-5-----------------------------|
A|---------------------7-5-7----7-5-7-----------|
E|----------------------------------------------|

e|----------------------------------------------|
B|----------------------------------------------|
G|--/9--7-6-------------------------------------|
D|------------9--7--5---------------------------|
A|-----------------------7-5-7~~~~--------------|
E|----------------------------------------------|

e|----------------------------------------------|
B|----------------------------------------------|
G|--/9--7-6--------------------/9--7-6----------|
D|------------9--7--5------------------9---5~~--|
A|-----------------------7-5--------------------|
E|----------------------------------------------|

e|----------------------------------------------|
B|----------------------------------------------|
G|--/9--7-6-------------------------------------|
D|------------9--7--5---------------------------|
A|-----------------------7-5-7~~~~--------------|
E|----------------------------------------------|



e|------2-2-------------|
B|------3-3-------------| You think it's just a movie on a silver screen
G|-4-4--2-2--1-1--4-4---|
D|-4-4--0-0--2-2--4-4---| And they're all actors and fake each scene
A|-2-2-------2-2--2-2---|
E|-----------0-0--------|






e|------2-2-------------|
B|------3-3-------------| 
G|-4-4--2-2--2-2--4-4---|
D|-4-4--0-0--2-2--4-4---|
A|-2-2-------0-0--2-2---|
E|----------------------|Maybe you dont care whose gonna lose or win

                         Listen to this and I'll tell you somethin'





It's a horror movie right there on my TV

Horror movie right there on my TV

Horror movie and there's known abuse


e|------------------------------------| (variation on main riff)
B|------------------------------------|
G|------------------------------------|
D|-----9-9-9-9------7-5-4-------------| Horror movie, it's the six-thirty news
A|-----7-7-7-7--------------7~~~~-----|
E|----0-0-0-0-0-----------------------| Horror movie, it's the six-thirty news
      x x x x x 





The public's waitin 
For the killin and the hatin
Switch on the station - oh yeah
They do a lotta sellin
Between the firin and the yellin
And you believe in what they're tellin - oh yeah 




It's a horror movie right there on my TV

Horror movie right there on my TV

Horror movie and there's known abuse


e|------------------------------------| (Vairiation on main riff)
B|------------------------------------|
G|------------------------------------|
D|-----9-9-9-9------7-5-4-------------| Horror movie, it's the six-thirty news
A|-----7-7-7-7--------------7~~~~-----|
E|----0-0-0-0-0-----------------------| Horror movie, it's the six-thirty news
      x x x x x

play around with E at end
     
Tap to rate this tab
 
# A B C D E F G H I J K L M N O P Q R S T U V W X Y Z