Song name
# A B C D E F G H I J K L M N O P Q R S T U V W X Y Z

Skyhooks - Horror Movie tab

-----------------------------------------------------------------
SONG NAME - HORROR MOVIE
-----------------------------------------------------------------
BAND - Skyhooks
-----------------------------------------------------------------

Tabbed by: adammcc47
Email: adammcc@internode.on.net

Tuning: standard

intro and verse

Guitar 1

(0) 	 = ghost note (play slightly muted)

      (x3)
e|--------------------------------------------------------------|
B|--------------------------------------------------------------|
G|--------------------------------------------------------------|
D|-------------------------------------------------5------------|
A|---5h7------7------7------7------5-------7-----------7--------|
E|--------(0)----(0)----(0)-----(0)----(0)-----(0)--------------|


Guitar 2

     (x2)
e|-----12-12-12-12-12------------14------|
B|-----12-12-12-12-12--------------------|
G|------------------------12/14----------|
D|---------------------------------------|
A|---------------------------------------|
E|---------------------------------------|


* bend in () played before breakdown section

        (2x)                                  first time                 Second time
e|-------------------------------|--------------------(12)-----|
B|-------------------------------|--5-----------12b--(15b)-----|
G|-------------------------------|--7b----------14b------------|
D|------7-7-7-7--5-4------------|------------------------------|
A|---------------------5---7----|------------------------------|
E|-------------------------------|-----------------------------|


Fm (7th fret)

Watch a horror movie right there on my TV

Horror movie right there on my TV

Horror movie right there on my TV

Shockin' me right out of my brain

Shockin' me right out of my brain       x2


Guitar 1

e|--------------------------------------|
B|--------------------------------------|
G|-9--9--9--9-------------------9-------|
D|-7--7--7--7-------------------9-------| x3
A|-0--0--0--0-------------------7-------|
E|--------------------------------------|

Guitar 2

e|------------------------------------------------------------|
B|------------------------------------------------------------|
G|---9-7-6---------------------------4-----6----7----8--------|
D|----------9-7--5--------(x3)----2-----4----5----6-----------|  x3
A|------------------7-5---------------------------------------|
E|------------------------------------------------------------|

It's bound to get ya in, get ya under your skin
It's bound to get ya in, get ya under your skin
Hit you right on the chin, oh yeah

It's bound to be a thriller, it's bound to be a chiller
It's bound to be a killer, oh yeah


Watch a horror movie right there on my TV

Horror movie right there on my TV

Horror movie right there on my TV

Shockin' me right out of my brain

Shockin' me right out of my brain



The planes are a-crashin', the cars are a-smashin'

They come for a-bashin', oh yeah

The kids are a-fightin', the fires are a-lighti'

The dogs are a-bitin', oh yeah



Watch a horror movie right there on my TV

Horror movie right there on my TV

Horror movie right there on my TV

Shockin' me right out of my brain

Shockin' me right out of my brain


Break

e|----------------------------------------------|
B|----------------------------------------------|
G|--/9--7-6-------------------------------------|
D|-----------9--7-5-----------------------------|
A|---------------------7-5-7----7-5-7-----------|
E|----------------------------------------------|

e|----------------------------------------------|
B|----------------------------------------------|
G|--/9--7-6-------------------------------------|
D|------------9--7--5---------------------------|
A|-----------------------7-5-7~~~~--------------|
E|----------------------------------------------|

e|----------------------------------------------|
B|----------------------------------------------|
G|--/9--7-6--------------------/9--7-6----------|
D|------------9--7--5------------------9---5~~--|
A|-----------------------7-5--------------------|
E|----------------------------------------------|

e|----------------------------------------------|
B|----------------------------------------------|
G|--/9--7-6-------------------------------------|
D|------------9--7--5---------------------------|
A|-----------------------7-5-7~~~~--------------|
E|----------------------------------------------|

Harmony Guitar 3rd time

e|-----------------------------------------------------------------------------------------------|
B|--14--12----------------------------14--12------------------14--12-----------------------------|
G|----------14--12----------------------------14--12------------------14--12---------------------|
D|------------------14--12----------------------------14----------------------14--12-------------|
A|--------------------------14--12----------------------------------------------------14-12--14--|
E|-----------------------------------------------------------------------------------------------|


2nd Harmony Guitar (last time)

e|--15b-15--14--12--------------------------------|
B|-------------------14--12---10--8---------------|
G|------------------------------------9-----------|
D|------------------------------------------------|
A|------------------------------------------------|
E|------------------------------------------------|



e|--------2-2-----------------|
B|--------3-3-----------------|
G|-4-4---2-2---1-1---4-4------|
D|-4-4---0-0---2-2---4-4------|
A|-2-2---------2-2---2-2------|
E|--------------0-0-----------|


You think it's just a movie on a silver screen
And they're all actors and fake each scene


e|------2-2----------------|
B|------3-3----------------|
G|-4-4--2-2--2-2--4-4------|
D|-4-4--0-0--2-2--4-4------|
A|-2-2-------0-0--2-2------|
E|-------------------------|


Maybe you dont care whose gonna lose or win
Listen to this and I'll tell you somethin'


It's a horror movie right there on my TV

Horror movie right there on my TV

Horror movie and there's known abuse


e|-------------------------------------------| (variation on main riff)
B|-------------------------------------------|
G|---------------------7-6-----4~~~----------|
D|--------------------------7----------------|
A|---5h7-7-7-7-------------------------------|
E|-------------------------------------------|

Harnony

e|--12--12--12--12-----------------------------|
B|--12--12--12--12-----------------------------|
G|--------------------12-11-----9--------------|
D|---------------------------12----------------|
A|---------------------------------------------|
E|---------------------------------------------|


Horror movie, it's the six-thirty news
Horror movie, it's the six-thirty news


The public's waitin
For the killin and the hatin
Switch on the station - oh yeah
They do a lotta sellin
Between the firin and the yellin
And you believe in what they're tellin - oh yeah


It's a horror movie right there on my TV

Horror movie right there on my TV

Horror movie and there's known abuse

Horror movie - it's the 6:30 news

Horror movie - it's the 6:30 news

And it's shocking me right out of my brain....

| /  slide up
| \  slide down
| h  hammer-on
| p  pull-off
| ~  vibrato
| +  harmonic
| x  Mute note
Tap to rate this tab
 
# A B C D E F G H I J K L M N O P Q R S T U V W X Y Z