Song name
# A B C D E F G H I J K L M N O P Q R S T U V W X Y Z

Skyhooks - Horror Movie tab

Tuning: standard

main riff                                                    x3
e|-------------------------------------------------------------------------|
B|-------------------------------------------------------------------------|
G|-----9-9-9-9-9-----------------------------------------------------------|
D|-----9-9-9-9-9----------------5------------------------------------------|
A|-----7-7-7-7-7-----5------7--------7-------------------------------------|
E|-------------------------------------------------------------------------|
       x x x x x

e|-------------------------------------------------------------------------|
B|-------------------------------------------------------------------------|
G|------14-14-14-14--12-12---7---9-----------------------------------------|
D|------14-14-14-14--12-12---7---9-----------------------------------------|
A|------12-12-12-12--10-10---5---7-----------------------------------------|
E|-------------------------------------------------------------------------|


verse
e|-------------------------------------------------------------------------|
B|----12-12-12-12-12----12-12-12-12-12----12-12-12-12-12-------------------|
G|----12-12-12-12-12----12-12-12-12-12----12-12-12-12-12-------------------|
D|----10-10-10-10-10----10-10-10-10-10----10-10-10-10-10-------------------|
A|-------------------------------------------------------------------------|
E|-------------------------------------------------------------------------|

e|--------------|
B|--------------|
G|----7----9----|
D|----7----9----|
A|----5----7----|
E|--------------|


outro
e|---------------------------------------------------|
B|---------------------------------------------------|
G|--14-14-14-14-14-14-14-14---12-12----7----9--------|
D|--14-14-14-14-14-14-14-14---12-12----7----9--------|
A|--12-12-12-12-12-12-12-12---10-10----5----7--------|
E|---------------------------------------------------|


| /  slide up
| \  slide down
| h  hammer-on
| p  pull-off
| ~  vibrato
| +  harmonic
| x  Mute note
============================================================================
Tap to rate this tab
# A B C D E F G H I J K L M N O P Q R S T U V W X Y Z