Song name
# A B C D E F G H I J K L M N O P Q R S T U V W X Y Z

Skyhooks - You Just Like Me Cause Im Good In Bed tab

Help us improve GuitareTab! Take a short survey!
YOU JUST LIKE ME 'CAUSE I'M GOOD IN BED
SKYHOOKS


transcribed by chrish@alphalink.com.au

key:
p=pull off
h=hammer on
x=mute strings
>=slide up
<=slide down
b=bend to
r=release to

Both guitars combined

INTRO		E		              A
e-------------------------------------------------------------------|
b----------------------5p3--5p3--5p3--5p3--5p3----2-----------------|
g----------------------4--4--4-4--4--4--4--4--4--4----2-------------|
d----------------------x---x--x-x---x--x--x--x--x--x-----2----------|  X3
a-------------0--------x---x--x-x---x--x--x--x--x--x-----0----------|
e---0---2--------------x---x--x-x---x--x--x--x--x--x----------------|
		mute with thumb
guitar 1		guitar 2

e------------------------------------------------------------|
b------------------------------------------------------------|
g------------------------------------------------------------|
d---14--14---14--14---14--14--14--12--14--12-----------------|
a-------------------------------------------------------12---|
e------------------------------------------------------------|

e------------------------------------------------------------------|
b------------------------------------------------------------------|
g--------------------------------------------------------12b14-----|
d----------------------------------------------14------------------|
a--------------------12-------12>16---14--------14-----------------|
e----14--14---14-------14------------------------------------------|

e------------------------------------------------------------------------|
b--12b14--12b14--12b14--12--10--12----17b19---17---15--------------------|
g------------------------------------------------------------------------|
d------------------------------------------------------------------------|
a------------------------------------------------------------------------|
e------------------------------------------------------------------------|

e----------------------------------------------------------|
b----------------------------------------------------------|
g----------------------------------------------------------|
d----14---16---14---16b18r16---14---16p14h16---------------|
a----------------------------------------------------------|
e----------------------------------------------------------|

e----------------------------------------------------------|
b----------------------------------------------------------|
g----------------------------------------------------------|
d--12--14----14p12h14---11---------------------------------|
a-----------------------------------12---------------------|
e----------------------------------------------------------|
end intro..............

Chorus
E			             A
You just like me cause I'm good in bed........etc
RIFF 1 	(repeat 6 times)
e---------------------------------------------------------------|
b---------------------------------------------------------------|
g---------------------------------------------------------------|
d----->14--14--14----12p11--12p11-------------------------------|
a--------------------------------------------12-------12--------|
e--------------------------------------------------14------14---|

then (RIFF 2) repeat 4 times over A chord
e--------------------------------------------------------------|
b--13--13--13--13--13--13--13---10--8--10--10--10--------------|
g--------------------------------------------------------------|
d--------------------------------------------------------------|
a--------------------------------------------------------------|
e--------------------------------------------------------------|

then
Verse 1
fill over D at first part of verse
e----------------------------------------------------------|
b----------------------------------------------------------|
g----------------------------------------------------------|
d----------------------12----------------------------------|
a-----12b14----14---------12b14----------------------------|
e----------------------------------------------------------|

D
well i'll meet you in the pub, at two minutes to ten
C          B             A
You all ready to go
D
six bottles of beer and a sneer on your face
C	        B                            A
I'd run but i'm much too slow
fill
e-----------------------------------------------------------|
b-----------------------------------------------------------|
g-----------------------------------------------------------|
d-----------7-----------------------------------------------|
a----7h9-------5h7------------------------------------------|
e-----------------------5-----------------------------------|

Chorus (RIFF 1)
RIFF 2
Verse 2(same chords as verse 1)
Chorus (RIFF 1)
RIFF 2
solo
Verse 3
Chorus(RIFF 1)
Related for You Just Like Me Cause Im Good In Bed tab