Song name
# A B C D E F G H I J K L M N O P Q R S T U V W X Y Z

Skylar Grey - Tower tab

Standerd Tuning

E|--------------------------------------|
B|--------------------------------------|
G|--------------------------------------|
D|--5-5---5-5-2-2-2-2-7-7-5-5-5-5-9-9---|
A|-3-3-3/7-7-0-0-0-0-9-9-7-7-5-5-5-5----|
E|--------------------------------------|

E|--------------------------------------|
B|--------------------------------------|
G|--------------------------------------|
D|--5-5---5-5-2-2-2-2-7-7-5-5-5-5-9-9---|
A|-3-3-3/7-7-0-0-0-0-9-9-7-7-5-5-5-5----|
E|--------------------------------------|

Repeats through the whole song
Tap to rate this tab
# A B C D E F G H I J K L M N O P Q R S T U V W X Y Z