Song name
# A B C D E F G H I J K L M N O P Q R S T U V W X Y Z

Skylark - Among The Clouds chords

Highlighted       Show chord diagrams
Skylark -  Among the clouds

my name is julio soto and my mail or msn is avantasian_1@hotmail.com

Intro escucha la cancion pues aqui va entrecortado.

[Lady Of The Light:]
White Warrior?

[White Warrior:]
Yeah, I'm here!

G---10---------------8-----------10----------------------|
B-11-------11--11-10-------9--11--------11---------------|
E------9-8-------------8-6---------9-8-----9-11-9-8-9-11-|


G---10--------10----------------------------------|
B-11-------11----11----------11-9-9-11-----11-9--|
E------9-8----------9-11-9-8------------9-8-------|

G---10--------10--------------------------|
B-11-------11----11-----------------------|
E------9-8----------8-9-13-11-9-13-11-9-8-|


[The Divine Gladiators:]
C#                             Ab
We'll never find the answers
 C#                             Ab
To the eternal fire
 C#                             Ab
The wizard knocks to my heart


[White Warrior:]
Bb		C#	 Ab
This is the time to realize
Bb		C#	 Ab
This is the way to go
Bb		C#	 Ab
Riding The Ivory Stormwind
Bb		C#	 Ab
I will penetrate the fog


[White Warrior:]

F					G#
'Cause I just want to meet some angels
F					G#		F#   G#
'Cause we don't want to lose the truth


Bb			Ab
Captured by the dark
Ab
The Battle is going to start
Bb
Don't you be afraid?
Ab
We stay among the stars

                 C#
So trust in me and you
        G#
will see, over the
     F#               G#
rainbow, our God can fill our dreams

SAME NOTES (MISMAS NOTAS)
The Cross will sign the
prophecy while we are
fighting among the clouds

Bb  Ab  Gb  F X4

SOLO GUITARRA
Bb  Ab  Gb  F X4

SAME NOTES AGAIN FIRST VERSE (MISMAS NOTAS DEL PRIMER VERSO)
[White Warrior:]
I want to know the Holy Ghost
I'll stick to my magic gun
Music is guiding my adventure
Mankind is needing God

[The Divine Gladiators:]
We really want to do it
It will be so easy
This melody is a winner

[White Warrior:]
This is the last day in which we find
The Endless power of our love
Tap to rate this tab
# A B C D E F G H I J K L M N O P Q R S T U V W X Y Z