Song name
# A B C D E F G H I J K L M N O P Q R S T U V W X Y Z

Skyscrapers Walk Among Us - Staging A Hollywood Getaway tab

GUITAR 1

INTRO/VERSE #1
|---------------------------------------|
|---------------------------------------|
|---------------------------------------|
|-151515-141414-121212-171717-1515-1414-|
|---------------------------------------|
|---------------------------------------|


CHORUS #1
|---------------------|
|---------------------|
|---------------------| x4
|-8888/1212-8888/1010-|
|-8888/1212-8888/1010-|
|-8888/1212-8888/1010-|


VERSE #2
|----------------------------|
|----666-555-1-----666-555-1-|
|----------------------------| x3
|----------------------------|
|----------------------------|
|-000-----------000----------|


PRE-CHORUS
|-------------|
|-------------|
|-------------|
|-00-00-00-00-|
|-00-00-00-00-|
|-00-00-00-00-|


CHORUS #2
|----------------------------------------|
|----------------------------------------|
|----------------------------------------| x8
|-1212-1515-1414-1212-12121212-1515-1414-|
|----------------------------------------|
|----------------------------------------|


VERSE #3
|-------------------------------|
|-------t6-t5-1---------t6-t5-1-|
|-------------------------------| x4
|-------------------------------|
|-------------------------------|
|-000000----------000000--------|


BRIDGE
|--------------|
|--------------|
|--------------| x2
|--------------|
|-0~-0~--8~-8~-|
|-0~-0~--8~-8~-|

|---------------------------|
|---------------------------|
|---------------------------| x5
|---------------------------|
|-00000000-88--000000-88888-|
|-00000000-88--000000-88888-|

|--------------------------------------------------------------|
|--------------------------------------------------------------|
|--------------------------------------------------------------|
|--------------------------------------------------------------|
|--------------------------------------------------------------|
|-00000000-00000000-00000000-00000000--0000~-0000~-0000~-0000~-|


PLAY PRE-CHORUS AND CHORUS #2


OUTRO
|-14p13p11h13----------------------12p10p9h10-|
|---------------------------------------------|
|---------------------------------------------|--------|
|-----------------------14h12h11p12-----------|        |
|------------14p13p11h13----------------------|        |
|---------------------------------------------|        |
                                                       | x4
|-13p12p10h12----------------------11p9p8h9-|          |
|-------------------------------------------|          |
|-------------------------------------------|          |
|-----------------------13h11h10p11---------|----------|
|------------13p12p10h12--------------------|
|-------------------------------------------|
PART .2
|----------------------------------------------------------------------|
|----------------------------------------------------------------------|
|-------121212------121212----12---------------------------------------|
|-121212------121212------1212---151515-141414-121212-171717-1515-1414-|
|----------------------------------------------------------------------|
|----------------------------------------------------------------------|


REPEAT PART 2 TILL FADE.



GUITAR 2

VERSE #1
|------------------888-777-555-101010-88-77-|
|-------------------------------------------|
|-------------------------------------------|
|-88888-1010101010--------------------------|
|-88888-1010101010--------------------------|
|-88888-1010101010--------------------------|


CHORUS #1
|---------------------------------------------|
|---------------------------------------------|
|-1010101010-1414141414-1010101010-1212121212-| x4
|--x-x-x-x-x--x-x-x-x-x--x-x-x-x-x--x-x-x-x-x-|
|--8-8-8-8-8-1212121212--8-8-8-8-8-1010101010-|
|---------------------------------------------|


VERSE #2
|------------------------------------|
|----111111-999-6----111111-121212-9-|
|------------------------------------| x2
|------------------------------------|
|------------------------------------|
|-000-------------000----------------|


PRE-CHORUS
|-------------|
|-------------|
|-------------|
|-xx-xx-xx-xx-|
|-xx-xx-xx-xx-|
|-xx-xx-xx-xx-|


CHORUS #2
|-------------------------------------------|
|-------------------------------------------|
|-101010101010101010-1212121212121212-------| x2
|--x-x-x-x-x-x-x-x-x--x-x-x-x-x-x-x-x-0~-0~-|
|--8-8-8-8-8-8-8-8-8-1010101010101010-0~-0~-|
|-------------------------------------0~-0~-|


VERSE #3
|--------------------------------|
|-------t11-t9-6--------t11-t9-6-|
|--------------------------------|
|--------------------------------|
|--------------------------------|
|-000000----------000000---------|


BRIDGE

|--------------|
|--------------|
|--------------| x2
|--------------|
|-0~-0~--8~-8~-|
|-0~-0~--8~-8~-|

|---------------------------|
|---------------------------|
|---------------------------| x5
|---------------------------|
|-00000000-88--000000-88888-|
|-00000000-88--000000-88888-|

|--------------------------------------------------------------|
|--------------------------------------------------------------|
|--------------------------------------------------------------|
|--------------------------------------------------------------|
|--------------------------------------------------------------|
|-00000000-00000000-00000000-00000000--0000~-0000~-0000~-0000~-|


PLAY PRE-CHORUS AND CHORUS #2


OUTRO
|-------------------------------------------|
|-------------------------------------------|
|-10101010101010101010-12121212121212121212-|
|--x-x-x-x-x-x-x-x-x-x--x-x-x-x-x-x-x-x-x-x-|
|--8-8-8-8-8-8-8-8-8-8-10101010101010101010-|
|-------------------------------------------|

|-------------------------------------|
|-------------------------------------|
|-----10-----12--10-----10-----12--10-|
|------x------x---x------x------x---x-|
|-0000-8-000-10-0-8-0000-8-000-10-0-8-|
|-0000---000----0---0000---000----0---|

Tap to rate this tab
 
# A B C D E F G H I J K L M N O P Q R S T U V W X Y Z