Song name
# A B C D E F G H I J K L M N O P Q R S T U V W X Y Z

Skyway Flyer - Some Imagination tab

Skyway Flyer - Some Imagination
Guitar 1 (main guitar/chords):
Capo 4
Verse/Prechorus:     G     Em7     Dsus4     Cadd9

Chorus/Solo:     G     Cadd9     Dsus4     Em7

Guitar 2 (background guitar/picking):
No Capo
Verse
    Gbmaj9
E -4-----------------------------|
B ---2---------------2-----------|
G ------3---------3--------------|      Repeat 7 times (until ' Im still a child')
D -------------4-----------------|
A -------------------------------|
E -------------------------------|

Then
Prechorus
    Gbmaj9                  Am7
E -4---------------------3------------------------------|
B ---2-------------2--------1---------------1-----------|
G ------3-------3---------------2-------2---------------|     Repeat twice (until chorus)
D ------------4-----------------------2-----------------|
A ------------------------------------------------------|
E ------------------------------------------------------|


Solo
E ----------------------------------------12-11-----------------------------11-----------|
B ----------12-12/14--12-------------12-----------14--12----------------12------12-------|
G -11-11-13---------------11-11-13--------------------------11-11-13-----------------13--|
D ---------------------------------------------------------------------------------------|
A ---------------------------------------------------------------------------------------|
E ---------------------------------------------------------------------------------------|
Repeat once
Then:
E ----------------------------------12-11------------14--12--11------------------------|
B --------12-12/14--14-12------12----------14--12-----------------12-------------------|
G -11-13--------------------13-------------------------------------------11--11/13-----|
D -------------------------------------------------------------------------------------|
A -------------------------------------------------------------------------------------|
E -------------------------------------------------------------------------------------|

Back to chorus

Chords used:
G          320033
Em7        022033
Dsus4      000233
Cadd9      032033
Gbmaj9     004324
Am7        002213
Tap to rate this tab
 
# A B C D E F G H I J K L M N O P Q R S T U V W X Y Z