Song name
# A B C D E F G H I J K L M N O P Q R S T U V W X Y Z

Skyway Flyer - Some Imagination tab

Song: "Some Imagination"
Artist: Skyway Flyer
Written by Jason Munday
This tab covers Guitar 1 for main chords, Guitar 2 for secondary chords, and solo

Guitar 1- main chords
INTRO:
B  Badd9/Ab  F#  E

VERSE 1
B       Badd9/Ab
Shining eyes
           F#        E
So full of wonder
B        Badd9/Ab
Changing times
                 F#            E
It's still there underneath it all
B             Badd9/Ab
I don't wanna grow up
             F#             E
I have still got so much to do
    B            Badd9/Ab  F#    E
But there's just so little time

PRECHORUS
    B             E
I'm still a child
   B             E
So free and wild

CHORUS
      Badd9            F#
Don't ever tell me I'm growing up
  G#            C#m
I never want to feel it
   Badd9             F#
So go on playing and having fun
       G#           C#m        Badd9  F#
What's life without some imagination
       G#           C#m        Badd9  F#
                    some imagination
       G#           C#m

VERSE 2
B      Badd9/Ab
Waking up
      F#       E
Early morning
B        Badd9/Ab
Awake enough
              F#           E
To watch some Saturday cartoons
B             Badd9/Ab
I don't wanna grow up
             F#             E
I have still got so much to do
    B            Badd9/Ab  F#    E
But there's just so little time

PRECHORUS
    B             E
I'm still a child
   B             E
So free and wild

REPEAT CHORUS

SOLO
E ------------------------------------12-11---------------------11-----------|
B ----------12-12/14-12-----------12---------14-12-----------12-----12-------|
G -11-11-13--------------11-11-13------------------11-11-13-----------13-----|
D ---------------------------------------------------------------------------|
A ---------------------------------------------------------------------------|
E ---------------------------------------------------------------------------|
Repeat once
Then:
E ----------------------------------12-11------------14--12--11------------------|
B --------12-12/14--14-12------12----------14--12-----------------12-------------|
G -11-13--------------------13-----------------------------------------11--11/13-|
D -------------------------------------------------------------------------------|
A -------------------------------------------------------------------------------|
E -------------------------------------------------------------------------------|

And back to CHORUS again

Chords Used:
B         x244xx
Badd9/Ab  4244xx
F#        244322
E         022100
Badd9     224422
G#        466444
C#m       446654


--------------------------------------------------------------------------------

Guitar 2 - Background Chords
Capo 4
INTRO:
G  Em7  Dsus4  Cadd9

VERSE 1
G       Em7
Shining eyes
           Dsus4        Cadd9
So full of wonder
G        Em7
Changing times
                 Dsus4             Cadd9
It's still there underneath it all
G             Em7
I don't wanna grow up
             Dsus4             Cadd9
I have still got so much to do
    G            Em7       Dsus4    Cadd9
But there's just so little time

PRECHORUS
    G             Em7
I'm still a child
   G             Em7
So free and wild

CHORUS
      G            Cadd9
Don't ever tell me I'm growing up
  Dsus4         Em7
I never want to feel it
   G                 Cadd9
So go on playing and having fun
       Dsus4        Em7        G     Cadd9
What's life without some imagination
       Dsus4        Em7        G     Cadd9
                    some imagination
       Dsus4        Em7

VERSE 2
G      Em7
Waking up
      Dsus4     Cadd9
Early morning
G        Em7
Awake enough
              Dsus4         Cadd9
To watch some Saturday cartoons
G             Em7
I don't wanna grow up
             Dsus4          Cadd9
I have still got so much to do
    G            Em7      Dsus4    Cadd9
But there's just so little time

PRECHORUS
    G             Em7
I'm still a child
   G             Em7
So free and wild

REPEAT CHORUS

SOLO
G  Cadd9  Dsus4  Em7

REPEAT CHORUS

Chords used:
G          320033
Em7        022033
Dsus4      000233
Cadd9      032033


---------------------------------------------------------------------------------

Guitar 3 - background picking in prechorus and 2nd half of verse
No Capo
I am really not sure about this part, this is as close as I could figure out
Verse (starting at 'I dont wanna grow up')
    Gbmaj9
E -4-----------------------------|
B ---2---------------2-----------|
G ------3---------3--------------|      Repeat 7 times (until ' Im still a child')
D -------------4-----------------|
A -------------------------------|
E -------------------------------|

Then
Prechorus
    Gbmaj9                  Am7
E -4---------------------3------------------------------|
B ---2-------------2--------1---------------1-----------|
G ------3-------3---------------2-------2---------------| Repeat twice (until chorus)
D ------------4-----------------------2-----------------|
A ------------------------------------------------------|
E ------------------------------------------------------|

Chords Used:
Gbmaj9     004324
Am7        002213
Tap to rate this tab
 
# A B C D E F G H I J K L M N O P Q R S T U V W X Y Z