Song name
# A B C D E F G H I J K L M N O P Q R S T U V W X Y Z

Skyway Flyer - Musical Thoughts From Places tab

Musical Thoughts From Places - Skyway Flyer (Jason Munday)
This is an instrumental piece I believe meant for 3 guitars as most of the parts overlap 
each other. Hope this helps!
http://www.youtube.com/watch?v=_nFxewO9TOM

part 1: (guitar 1)
Time in song 0:04-3:20
E-3p0-3----------------|
B-3-----3---3---3------|
G---------0---0---0----|
D----------------------| repeats through song
A-3--------------------|
E----------------------|

part 2: (guitar 2)  *Listen to song for rhythm,check chords used section*
Time in song 0:53-1:32   and 2:29-2:52

C     D Cadd9     repeat as necessary


part 3: (guitar 3)
Time in song 1:09-2:20
E-------------------------|
B-------------------------|
G-------------------------|
D--7/9-7-----7/9-7-5------|   repeat through song
A--------------------5----|
E-------------------------|


part 4: (guitar 2)
Time in song 1:32-1:54
E-3-2-0------0-2---|
B-------3--3-------|
G------------------|  repeat as necessary
D------------------|
A------------------|
E------------------|

On last repetition of Part 4, play:
E-3-2-0----|
B-------3--|
G----------|
D----------|
A----------|
E----------|

Chords Used:
C     x32033
D     xx0232
Cadd9 x32030
Tap to rate this tab
 
# A B C D E F G H I J K L M N O P Q R S T U V W X Y Z