Song name
# A B C D E F G H I J K L M N O P Q R S T U V W X Y Z

Skyway Flyer - A Far Shore chords

Highlighted       Show chord diagrams
A Far Shore acoustic - Jason Munday
album version is no capo, but when playing live jason uses capo 5

INTRO
A2 E B

VERSE 1
A2      E          B
   My only hope of reaching you

is sending this report
A2     E               B
   I wish that I could hear you now

this is my last resort

PRECHORUS
A2          E       B
  Dont count  me out
       C#m
all gauges warn danger
A2     E      B
  I wont bail out

CHORUS
     A2      E
As I jump to warpspeed
        B                         C#m
I throw everything I knew out the door
         A2         E
brace my heart as I proceed
         B                 C#m
where no man has ever been before
          A2
Theres no other way around it
E
completely surrounded
B                      C#m
strings play the final score
     A2      E
As I jump to warpseed
     B    N.C.       A2    E
destination a far shore
          B
a far shore

VERSE 2
A2     E                   B
  If I could turn back you know I would

believe me I have tried
A2   E                     B
  Id trade the greatest discovery

to look into your eyes

Repeat PRECHORUS and CHORUS

BRIDGE/SOLO
C#m  A2  E  B   x2

E-------------9----------------------------------------|
B-9-9----9-12---12-9-----------------12-11-------------|
G-----11-------------11/9-11-11-9-11-------------------|
D------------------------------------------------------|
A------------------------------------------------------|
E------------------------------------------------------|


E-------------9---------------------------------9------|
B-9-9----9-12---12-9-----------------12-9-11-12---/12--|
G-----11-------------11/9-11-11-9-11-------------------|
D------------------------------------------------------|
A------------------------------------------------------|
E------------------------------------------------------|


chords:
A2      002200
E       022100
B       024400
C#m     046600
N.C.    NO CHORD
Tap to rate this tab
# A B C D E F G H I J K L M N O P Q R S T U V W X Y Z