Song name
# A B C D E F G H I J K L M N O P Q R S T U V W X Y Z

Slackers - Dont Forget The Streets tab

Help us improve GuitareTab! Take a short survey!
im pretty sure this tab is 100% correct

intro- downstrokes, figure out the times played for yourself

     F   G#  A#  C#
e|---1---4---6---9------------------------------------------------------|
B|---1---4---6---9------------------------------------------------------|
G|---2- -5---7--10------------------------------------------------------|
D|---3---6---8--11------------------------------------------------------|
A|---3---6---8--11------------------------------------------------------|
E|---1---4---6---9------------------------------------------------------|

Verses- played with ska style

     F  C  Bflat  F
e|---1--8---6-----1-----------------------------------------------------|
B|---1--8---6-----1-----------------------------------------------------|
G|---2--9---7-----2-----------------------------------------------------|
D|---3-10---8-----3-----------------------------------------------------|
A|---3-10---8-----3-----------------------------------------------------|
E|---1--8---6-----1-----------------------------------------------------|

Chorus- same as verse but last F is

e|--------------------------------------------------------------------------|
B|--------------------------------------------------------------------------|
G|-10-----------------------------------------------------------------------|
D|-10-----------------------------------------------------------------------|
A|-8------------------------------------------------------------------------|
E|--------------------------------------------------------------------------|

outro- play by themselves

e|-1-----1--------------------------------------------------------------|
B|-1-----1--------------------------------------------------------------|
G|-2-5-3-2--------------------------------------------------------------|
D|-3-5-3-3--------------------------------------------------------------|
A|-3-3-1-3--------------------------------------------------------------|
E|-1-----1--------------------------------------------------------------|

intro
verse x7
intro
chorus x2
verse x5
intro
chorus x2
verse x10
intro
chorus x3
outro

any questions or compliments: bransonbrockman@gmail.com
hopefully i can figure out more slackers songs and put them up.
Related for Dont Forget The Streets tab