Song name
# A B C D E F G H I J K L M N O P Q R S T U V W X Y Z

Slackers - International War Criminal tab

The Slackers
Peculiar
International War Criminal


Intro:
---4-------4-------4-------5---|
---5-------4-------6-------5---|
---4-------5-------6-------6---|
---6-------6---------------7---|
-------------------------------| x2
-------------------------------|
 (Let it ring out)

Verse
---x-4-x-4-x-4-x-4-x-4-x-4-x-4-x-4-x-4-x-4-x-4-x-4-x-5-x-5-x-5-x-5---|
---x-5-x-5-x-5-x-5-x-4-x-4-x-4-x-4-x-6-x-6-x-6-x-6-x-5-x-5-x-5-x-5---|
---x-4-x-4-x-4-x-4-x-5-x-5-x-5-x-5-x-6-x-6-x-6-x-6-x-6-x-6-x-6-x-6---|
---x-6-x-6-x-6-x-6-x-6-x-6-x-6-x-6-----------------x-7-x-7-x-6-x-7---|
---------------------------------------------------------------------|
---------------------------------------------------------------------|
 (Play with the ska/upstroke technique)


Chorus:
Guitar 1
---x-4-----x-4-----x-4-----x-5-------|
---x-5-----x-4-----x-6-----x-5-------|
---x-4-----x-5-----x-6-----x-6-------|
---x-6-----x-6-------------x-7-------|
-------------------------------------| x4
-------------------------------------|

Guitar 2
-------------------------------------|
-------------------------------------|
-----------------------1-221---------|
---(REST)---->(REST)-2-------4-1-----|
-------------------------------------| x4
-------------------------------------|
Tap to rate this tab
# A B C D E F G H I J K L M N O P Q R S T U V W X Y Z