Song name
# A B C D E F G H I J K L M N O P Q R S T U V W X Y Z

Slackers - Tool Shed tab

----------------------------------------------------------------------------
                             TOOL SHED - The Slackers
----------------------------------------------------------------------------
Tabbed by:
Email:

Tuning: eBGDAE

Use ska strumming

Intro/Chorus/Outro:

e|-------------------------------------------------------------------------|
B|-------------------------------------------------------------------------|
G|-----------------x-5-x-5-x-5-x-5-----------------x-7-x-7-x-7-x-7---------|
D|-x-5-x-5-x-5-x-5-x-5-x-5-x-5-x-5-x-5-x-5-x-5-x-5-x-7-x-7-x-7-x-7---------|
A|-x-5-x-5-x-5-x-5-x-3-x-3-x-3-x-3-x-5-x-5-x-5-x-5-x-5-x-5-x-5-x-5---------|
E|-x-3-x-3-x-3-x-3-----------------x-3-x-3-x-3-x-5-------------------------|

e|-------------------------------------------------------------------------|
B|-------------------------------------------------------------------------|
G|-----------------x-5-x-5-x-5-x-5---------x-7-x-7-------------------------|
D|-x-5-x-5-x-5-x-5-x-5-x-5-x-5-x-5-x-5-x-5-x-7-x-7-x-5-x-5-x-5-x-5---------|
A|-x-5-x-5-x-5-x-5-x-3-x-3-x-3-x-3-x-5-x-5-x-5-x-5-x-5-x-5-x-5-x-5---------|
E|-x-3-x-3-x-3-x-3-----------------x-3-x-3---------x-3-x-3-x-3-x-3---------|

Verse:

e|-----------------------------------------------------------------------|
B|-----------------------------------------------------------------------|
G|-------------------------------------------------x-7-x-7-x-7-x-7-------|
D|-x-5-x-5-x-5-x-5-x-5-x-5-x-5-x-5-x-5-x-5-x-5-x-5-x-7-x-7-x-7-x-7-------|
A|-x-5-x-5-x-5-x-5-x-5-x-5-x-5-x-5-x-5-x-5-x-5-x-5-x-5-x-5-x-5-x-5-------|
E|-x-3-x-3-x-3-x-3-x-3-x-3-x-3-x-3-x-3-x-3-x-3-x 3-----------------------|



************************************

| /   slide up
| \   slide down
| h   hammer-on
| p   pull-off
| ~   vibrato
| +   harmonic
| x   Mute note
| b   Bend
| pb  Pre-bend
| br  Bend release
| pbr Pre-bend release
| brb Bend release bend

************************************
Tap to rate this tab
# A B C D E F G H I J K L M N O P Q R S T U V W X Y Z