Song name
# A B C D E F G H I J K L M N O P Q R S T U V W X Y Z

Slackstring - Sunday Jen tab

Slackstring
"Sunday Jen"
Tuning: Standard
Transcribed by Soch Hean

Here is the band's official site: http://www.slackstring.com/

Piano Intro:
  D         Am        Bm        Em        C         G
|----------------------------------------------------------------|
|-----7---------5---------7---------8---------5---------3--------|
|-----7---------5---------8---------7---------5---------4--------|
|---7---7-----5---5-----7---7-----9---9-----5---5-----5---5------|
|-5-----------------------------7---------3----------------------|
|-----------5---------7-----------------------------3------------|
  D         D         D
|---------------------------------------------------------|
|-----7---------7---------7-------------------------------|
|-----7---------7---------7-------------------------------|
|---7---7-----7---7-----7---7-----------------------------|
|-5---------5---------5-----------------------------------|
|---------------------------------------------------------|

Verse:
Am              Bm               Em
Monday morn is taking this life away from me 
    C                  G          D
I find myself in the same place again
                Am
Staring at the same four walls 
Bm                Em
Screen makes my eyeballs crawl
C                   G                 D
No man was made to live the life I'm in


Verse 2:
Am                              Bm
But I won't spend time on your giant clock 
    Em          G
My imagination just won't stop 
   Am                    Bm
I just can't let this feeling go 
    C                  D
I guess I should just ask you so...


Chorus:
C               G                D            Am
Sunday Jen, oh won't you let me come see you tomorrow
           C          G            D
Though I know my time is six days away
C                G                D              Am
Sunday Jen, oh this I know, the future can't be borrowed 
             C               G                  D
But there's no one else who makes me feel this way


Verse 3:
D          Am                 Bm              Em
No since forcing it, you just got to let it flow
C                     G           D
And I can't think to say I let it go
D     Am                   Bm                    Em
After all this time, after all that we've been through 
      C                G         D
Just one less car 'on down the avenue


Verse 4:
Am                Bm
Abstract thoughts on a page
      Em               G
Were never really my forte 
         Am                  Bm
There's too much logic and Savoir Faire 
     C             D
For two souls in parallel


[Play Chorus]


Guitar Solo:
|--------14-15-17--15-14h15p14-12----12\----7-7-8--------------------------|
|----15---------------------------15--------------10-10-10b12rp8-----------|
|-14-------------------------------------------------------------9---------|
|--------------------------------------------------------------------------|
|--------------------------------------------------------------------------|
|--------------------------------------------------------------------------|

|------------------7-------------------------------------------------------|
|-----8---8-10b12=---10pb12-8--10p8-10b12-10-8-10--10p8--------------------|
|-7h9---9-----------------------------------------------9-7h9-9-7h9-7------|
|--------------------------------------------------------------------------|
|--------------------------------------------------------------------------|
|--------------------------------------------------------------------------|

|--------------------------------------------------------------------------|
|-------------8---8-10-10b12----10pb12-8--10b12-10-8-----------------------|
|-----7---7-9---9------------------------------------9--7------------------|
|-7h9---9------------------------------------------------------------------|
|--------------------------------------------------------------------------|
|--------------------------------------------------------------------------|

|----------------------------------------------------10--10-12--10---------|
|------8-----8-----8-10b12-10p8-10-8--10~-10p8-10b12-----------------------|
|-7s=9---7h9---7h9---------------------------------------------------------|
|--------------------------------------------------------------------------|
|--------------------------------------------------------------------------|
|--------------------------------------------------------------------------|

|--------14-15--17-17-15-14-15-17-17-17s19-17--15h17p15-14h15p14------------|
|----15----------------------------------------------------------17---------|
|-14------------------------------------------------------------------------|
|---------------------------------------------------------------------------|
|---------------------------------------------------------------------------|
|---------------------------------------------------------------------------|

|-------10-------10-12s10---------------------------------------------------|
|-10h12----10h12----------12-10\-8--10b12-10-8-10--10p8-8-10-8-10b12-10pb12-|
|---------------------------------------------------------------------------|
|---------------------------------------------------------------------------|
|---------------------------------------------------------------------------|
|---------------------------------------------------------------------------|

|---------------------14--15-15-15s17------17b19r-15-----------------------|
|-8-10-8-8--------15------------------17\------------17p15-17p15----15-17--|
|-------------14-------------------------------------------------16--------|
|--------------------------------------------------------------------------|
|--------------------------------------------------------------------------|
|--------------------------------------------------------------------------|

|--------------------------------------------------------------------------|
|-17-15--------------------------------------------------------------------|
|-------16s14s12---14b16r-12-14p12----------12-14--14b16==r----------------|
|----------------------------------14-12-14--------------------------------|
|--------------------------------------------------------------------------|
|--------------------------------------------------------------------------|

[Play Chorus]

Outro:
        C       G                D            Am       C   G   D
Oh Sunday Jen, won't you let me come see you tomorrow?
        C       G                D            Am       C   G   D
Oh Sunday Jen, won't you let me come see you tomorrow?

Chords:
D:   xx0232
Am:  x02210
C:   x32010
G:   320033
Bm:  x24432
Em:  022000

Legend:
s - slide
h - hammeron
p - pulloff
b - bend
r - release
pb - prebend
Tap to rate this tab
 
# A B C D E F G H I J K L M N O P Q R S T U V W X Y Z