Song name
# A B C D E F G H I J K L M N O P Q R S T U V W X Y Z

Slade - I Dont Mind tab

------------------------------------------------------------------------------
			     I Don't Mind - Slade
------------------------------------------------------------------------------
Tabbed by: Alan Brown
Email: alan@donnabrown4357.freeserve.co.uk

Tuning: Standard tuning.
Listen to the CD for correct timing.  Track of the album Slayed.

This is my fingerstyle version of Slade's song.  On section A when pulling off on the
second fret G string bend up slightly before doing so.

  Section A
e|------------------------------------------------------------------------------|
B|-3-0-0-------0-----------0-3-0---0---0--3-0-0-------0-----------0-3-0---0---0-|
G|-0-0-2p0-----0-------0-2-0-0-0---0---0--0-0-2p0-----0-------0-2-0-0-0---0---0-|
D|-0-------2-------2----------------------0-------2-------2---------------------|
A|------------------------------------------------------------------------------|
E|-3---0-----0---0-0-0-----3-----3---3----3---------0---0-0-0-----3-----3---3---|

e|-----------------------------------------------------------------------------------|
B|-0-------0---0---0-0-------------0---0---0-0-------0---0---0-0-------------0---3-5-|
G|-0-2-0---2---4---4-4-2-0-2---0---0---0---0-0-2-0---2---4---4-4-2-0-2---0---0---0-0-|
D|-----------------------------------------------------------------------------------| on to B
A|-------0---0---2---2-------0---------------------0---0---2---2-------0-------------|
E|-3-----------------------------0---0---0---3-----------------------------0---0---0-|

  Repeat these lines again.....
  
  Then the break....roughly the sequence A-B-A-B 

  Section B
e|----------------------------------------------------------------------------|
B|-----1---1---1---3-3-1-----2---1---1---3-3-1--0-0-------0---3-0-0-------0---|
G|---------2---2---2-2-2---------2---2---2-2-2----2p0-----0---0-0-2p0-----0---|
D|-oh2-----2---2---------0h2-----2---2----------------2-------0-------2-------|  Back to A
A|-------0-------0---0---------0-------0---0----------------------------------|
E|-----------0---------------------0--------------0-----0---0-3---0-----0---0-|

I don't mind, if there's a change in me.
I'm unkind, that's how I've got to be.
Am I being cruel? 
Am I being Cruel?
I danced on your face, it seemed the best place,
for acting the fool.

I got time, to put my wrong things right.
My life's mine, to do with what I like.
Am I being cruel?
Am I being cruel?
I danced on your face, it seemed the best place,
For acting the fool.

I'm going up down all around,
Build me up and knock me down, to the ground.
I don't mind.
I don't mind.
My star sign was no good for you.
It might shine but it won't pull me through.
Am I being cruel?
Am I being cruel?

I danced on your face, it seemed the best place,
for acting the fool.

I don't mind etc etc...

The End.
Tap to rate this tab
# A B C D E F G H I J K L M N O P Q R S T U V W X Y Z