Song name
# A B C D E F G H I J K L M N O P Q R S T U V W X Y Z

Slade - Bangin Man tab

Author/Artist: Slade
Title: The Bangin' Man
Transcribed by: Hunter Maxwell


The slide guitar plays pretty much on the chords with a few ad-libs

Intro rhythm four times
------------------------------|
--------------------3---------|
-------2------2-----2---------|
-------2------2-----0---------|
-------0-3p0----3p0----3p0----|
-0-3-4------------------------|


-----------------------------------------------------------------------------|
-----------------------------------------------------------------------------|
----------2--------------------------2-------------------2-------------------|
----------2--------------------------2-------------------2---------2---------|
----------0-------3-p-0-----0--------0----0-3-p-0--------0---------2---------|
-------------------------3--------------------------3--------------0----3-p0-|
When you wake up in the morning You can't remember much about the night before


--------------------    ---------------------------|
--------------------    --3----3-------------------|
--------------------    --2--h-4-------------------|
----------2------2--    --0----0-------------------|
-2-5-4-2--2------2--    ---------------------------|
----------0--3p0----    ---------------------------|
                        �head won't stop singing

--1---1-/---1---1-/---1---1--1------------------------------|
--1---1-/---1---1-/---1---1--1------------------------------|
--2-h-3-/-p-2-h-3-/-p-2---3--2----------2-------------2---2-|
--3---3-/---3---3-/---3---3--3----------2-------------2---2-|
----------------------------------------0-------3p0---0---0-|
----------------------------------0-3-4---------------------|
�plane is gonna leave at 12:15  It was close to 6 o'clock

------------------------------------------------------------------|
------------------------------------------------------------------|
----------------------------------2----2--2----2----2-------------|
------------2---------------2-----2----2--2----2----2----------2--|
------------2---------------2-----0--3p0--0----0--3p0----------2--|
---3----p---0------3-p-0----0----------------3p------------3-p-0--|
before you got to know a little dream             Look at the Bangin'

          A
When you wake up in the morning
                                   E
You can't remember much about the night before
          A
Then the lady who's beside you gets up
                                  E
She goes right out and locks the bathroom door
          D                            D
And your head won't stop singing, the phone won't stop ringing
       F
Your plane is goin' to leave at 12:15
        A                             E                   A
It was close to 6 o'clock before you got to know a little dream


Chorus (play twice)
            E
Look at the bangin' man, he says he can
D           A
Time after time
           E
He'll get down, down, down
                  A
To bang him back home
(repeat intro into verse second time)

I've been in fifty different towns in fifty different days
They all got different names
I've been in fifty limousines and fifty hotel rooms
They all look the same
And your head won't stop cracking, your case she's unpacking
The only sound is from the TV screen
Until a knock comes on the door and standing there's another little dream

Chorus

Guitar solo
-------------------------------------------------------------------------|
-------------------------------------------------------------------------|
------------------sl/14---------------------------------------------2----|
-sl/7--sl/12--10------------------------7p0---5p0---4p0---2p0---2h4------|
-sl/7----------------------------7(sl)9-----7-----5-----4-----4----------|
-------------------------------------------------------------------------|
�home             'Cause he's a banger

------------------------------------------sl/14--12-/-17-------|
------------------------------------------sl/15--13-/-17-------|
--4b(6)r(4)--2---2-----------sl/14-----------------------------|
---------------4-------------Sl/14-----------------------------|
---------------------------------------------------------------|
---------------------------------------------------------------|

(x= mute pick the G string)
---------------------------5--7b(9)r(7)--5------5-------------|
-----10---8---7---5---5h7------------------7----5-------------|
---x----x---x---x---------------------------------------------|
--------------------------------------------------------------|
--------------------------------------------------------------|
--------------------------------------------------------------|


Oh when you wake up in the morning
You can't remember much about the night before
A small reminder of the state you were in
Are all the tattered clothes across the floor
And your head it still keeps singing, the phone it still keeps ringing
Remember just exactly where you've been
'Cause there ain't no doubt about it
There's no better things to see than what you've seen

Chorus
Tap to rate this tab
 
# A B C D E F G H I J K L M N O P Q R S T U V W X Y Z