Song name
# A B C D E F G H I J K L M N O P Q R S T U V W X Y Z

Slade - Merry Christmas Everybody tab

E|-----------------------------------|
B|-----------------------------------|
G|-3-3-3-3-3-3-3-3---7-7-7-7-7-7-7-7-|
D|-3-3-3-3-3-3-3-3---7-7-7-7-7-7-7-7-|
A|-1-1-1-1-1-1-1-1---5-5-5-5-5-5-5-5-|
E|-----------------------------------|

Verse
E|-------------------------------------------------|
B|-------------------------------------------------|
G|---------------5-5-5-5---7-7-7-7-7-7-7-7---------|
D|-5-5---2-2---5-5-5-5---7-7-7-7-7-7-7-7-----------|  x2
A|-5-5---2-2---3-3-3-3---5-5-5-5-5-5-5-5-----------|
E|-3-3---0-0---------------------------------------|

E|-------------------------------------------------|
B|-------------------------------------------------|
G|-5-5-5-5---------------5-5-5-5-------------------|
D|-5-5-5-5---5-5-5-5---5-5-5-5---5-5-5-5-----------|
A|-3-3-3-3---5-5-5-5---3-3-3-3---5-5-5-5-----------|
E|-------------3-3-3-3---------------3-3-3-3-------|

E|-----------------------------------------------|
B|-----------------------------------------------|
G|-------------5-5-5-5---7-7-7-7-7-7-7-7---------|
D|-7-7-7-7---5-5-5-5---7-7-7-7-7-7-7-7-----------|
A|-7-7-7-7---3-3-3-3---5-5-5-5-5-5-5-5-----------|
E|-5-5-5-5---------------------------------------|

Chorus
E|-----------------------------------------------------------|
B|-----------------------------------------------------------|
G|-------------4-4-4-4---3-3-3-3---7-7-7-7-7-7-7-7-----------|
D|-5-5-5-5---4-4-4-4---3-3-3-3---7-7-7-7-7-7-7-7-------------|  x2
A|-5-5-5-5---2-2-2-2---1-1-1-1---5-5-5-5-5-5-5-5-------------|
E|-3-3-3-3---------------------------------------------------|

Verse


Bridge
E|----------------------------------------------|
B|----------------------------------------------|
G|-3-3-3-3-3-3-3-3---7-7-7-7-7-7-7-7------------|
D|-3-3-3-3-3-3-3-3---7-7-7-7-7-7-7-7------------|
A|-1-1-1-1-1-1-1-1---5-5-5-5-5-5-5-5------------|
E|----------------------------------------------|
    Xxxxxxxxxxxxxxxxxxxxxxxxxxxx                                     Pm

E|----------------------------------------------|
B|----------------------------------------------|
G|-3-3-3-3-3-3-3-3---7-7-7-7-7-7-7-7------------|
D|-3-3-3-3-3-3-3-3---7-7-7-7-7-7-7-7------------|
A-1-1-1-1-1-1-1-1----5-5-5-5-5-5-5-5------------|
E|----------------------------------------------|


Back to Chorus


If there are any problems…please contact me at beckra@hotmail.co.uk
Tap to rate this tab
# A B C D E F G H I J K L M N O P Q R S T U V W X Y Z