Song name
# A B C D E F G H I J K L M N O P Q R S T U V W X Y Z

Slade - Roach Daddy tab

Hey fan of Slade, here's the song roach daddy!!

  E
E-----------------|
B-----------------|
G-----------------|   x4
D-----------------|
A-2-4-5-4---------|
E-0-0-0-0---------|


  A
E-----------------|
B-----------------|
G-----------------|   x4
D-2-4-5-4---------|
A-0-0-0-0---------|
E-----------------|
  E
E-----------------|
B-----------------|
G-----------------|   x2
D-----------------|
A-2-4-5-4---------|
E-0-0-0-0---------|
  B
E-----------------|
B-----------------|
G-----------------|
D-4-6-4-6---------|
A-2-2-2-2---------|
E-----------------|


  A
E-----------------|
B-----------------|
G-----------------|
D-2-4-5-4---------|
A-0-0-0-0---------|
E-----------------|
  E
E-----------------|
B-----------------|
G-----------------|
D-----------------|
A-2-4-5-4---------|
E-0-0-0-0---------|
  B
E-----------------|
B-----------------|
G-----------------|
D-4-4-4-4---------|
A-2-2-2-2---------|
E-----------------|

Lyrics:
E
Whatever the roach daddy
A
Whatever the roach daddy
 E
Let's take this time daddy
B
 Whatever the roach daddy
A                      E                B7
 Daddy's getting high, tied to the fly, daddy
E
 Der der-der der der der-der
A
 Der der-der der der der-der
E
 Der der-der der der der-der
B7                 A           E
 Der der-der der der der-der
B7
 Oh that's nice
E
 Get yourself together daddy
A
 Get yourself together daddy
E
 Let's take this time daddy
B7
 Get yourself together daddy
A                    E                        B7
 Pauses at the door, there's nowhere to crawl, daddy

This is an easy track to play. Sounds like blues. I hope you enjoy it. Rate this tab 
please! thanks!
Tap to rate this tab
# A B C D E F G H I J K L M N O P Q R S T U V W X Y Z