Song name
# A B C D E F G H I J K L M N O P Q R S T U V W X Y Z

Slade - Look What You Dun tab

#----------------------------------PLEASE NOTE--------------------------------#
#This file is the author's own work and represents their interpretation of the#
#song. You may only use this file for private study, scholarship, or research.#
#-----------------------------------------------------------------------------#
#-- File created with Instab - http://www.pconline.com/~smcarey/instab.html --#
#-----------------------------------------------------------------------------#

Author/Artist: Slade
Title: Luk wat you dun
Album: Walls of Hits
Transcribed by: banginman
Email: bangin_alex@yahoo.de

I love this song so I had to tab it out!!
Some parts of the solo are missing cuz Dave playes them in
the background so it's not so important! You can play something 2 times....
It's an easy song so have fun and still love SLADE!!!!!!
(The best band ever!!!!!!!!!!)
Solo:       play that 2 times                     play that 2 times
--------------------------------------|----------------------------------------|
--------------------------------------|---999999--111111111111----11-9-11-9----|
-----9-7---------9-7------------------|---888888--101010101010----108-108------|
---------8-6---------8-6-----6-8-10br-|----------------------------------------|
--------------------------------------|----------------------------------------|
--------------------------------------|----------------------------------------|
                            hear at the music
                            to play this cuz it's
                            played only 1x;thats the intro
---------------------------5-5---5-5-5--|--------------------------------------|
-11-11-11-11--11b----------6-5-5-5-6-5--|----9b----9b------11b-----11b---------|
-10-10-10-10--10b----------7-5-5-5-7-5--|-8b----8b-----10b-----10b-------------|
-------------------------------5--------|--------------------------------------|
----------------------------------------|--------------------------------------|
----------------------------------------|--------------------------------------|
  Improvisation:play something when you want to fill the missing things


Intro:Dm Am C Am Dm Am  (played with piano but you can take a clean guitar)
Dm Am C Am  Dm Am
Tap to rate this tab
# A B C D E F G H I J K L M N O P Q R S T U V W X Y Z