Song name
# A B C D E F G H I J K L M N O P Q R S T U V W X Y Z

Slagsmalsklubben - Ovningskora tab

-------------------------------------------------------------------------------
			     ÖVNINGSKÖRA - SLAGSMÅLSKLUBBEN
-------------------------------------------------------------------------------
This is a few of the parts in the song, those that i could figure out.
It's an awesome song and i hope you'll appreciate the tab, i think that almost
everything is correct. Think you'll figure out order of play and when to play
what part quite quick by listening:)

Tabbed by: Jesper Åkerlind
Email: jesperakerlind@gmail.com

Tuning: Standard

Bass line

e|---------------------------------------------------------------------------|
B|---------------------------------------------------------------------------|
G|---------------------------------------------------------------------------|
D|-----------------------------------7---7---7---7---3---3---3---3-----------|
A|---3---3---3---3---7---7---7---7-7---7---7---7---3---3---3---3-------------|
E|-3---3---3---3---7---7---7---7---------------------------------------------|

Intro
e|---------------------------------------------------------------------------|
B|---------------------------------------------------------------------------|
G|-5--9-9--12--14-14--9-12-14-10---------------------------------------------|
D|-5--9-9--12--14-14--9-12-14-10---------------------------------------------|
A|---------------------------------------------------------------------------|
E|---------------------------------------------------------------------------|

Main riff 
e|---------------------------------------------------------------------------|
B|---------------------------------------------------------------------------|
G|---2---0----0-2--------------2---0----0-2----------------------------------|
D|-2---2----2-----2-2---2----2---2----2-----3--3--3--------------------------|
A|--------------------2---2--------------------------------------------------|
E|---------------------------------------------------------------------------|

Higher part of the bass line

e|-----------------------------------5---5---5---5---------------------------|
B|---1---1---1---1---5---5---5---5-------------------6---6---6---6-----------|
G|---------------------------------2---2---2---2-----------------------------|
D|-----------------2---2---2---2-------------------3---3---3---3-------------|
A|-3---3---3---3-------------------------------------------------------------|
E|---------------------------------------------------------------------------|

Tap to rate this tab
 
# A B C D E F G H I J K L M N O P Q R S T U V W X Y Z