Slagsmalsklubben - Ovningskora tab

Chords: C/// Em/// Am/// F///

Melody:


e----0-0---3--5---1---3-----------------------|
b-1-----------------1---1---------------------|
g---------------------------------------------|
d---------------------------------------------|      x2
a---------------------------------------------|
E---------------------------------------------|


e-0-5-0-3-0-3-5-0-0--0-----------------------|
b-------------------3------------------------|
g--------------------------------------------|
d--------------------------------------------|
a--------------------------------------------|
E--------------------------------------------|
                                                    x2
e-0-5-0-3-0-3-5-1-1-0-1----------------------|
b--------------------------------------------|
g--------------------------------------------|
d--------------------------------------------|
a--------------------------------------------|
E--------------------------------------------|

by @st
Tap to rate this tab
 
# A B C D E F G H I J K L M N O P Q R S T U V W X Y Z