Song name
# A B C D E F G H I J K L M N O P Q R S T U V W X Y Z

Slam Donahue - Cmon Cmon tab

----------------------------------------------------------------------------
                  C'mon C'mon - Slam Donahue
----------------------------------------------------------------------------
Tabbed by: Marcusolini
E-mail: marcusolini@yahoo.com

Tuning: Drop D (DADGBe)

Intreptation using:
Epiphone AJ-500RNS Acoustic Guitar
D'Addario Acoustic Guitar Strings - Medium EXP17 - Coated Phosphor Bronze
Steel Pick (dime coin improvisation)


"C'mon C'mon" by Slam Donahue
http://wwww.slamdonahue.com/

INTRO (2 times)
e|-X--X-----X--X--X--X-----X--X--X-|-X--X-----X--X--X--X-----X--X--X-|
B|-X--X-----X--X--X--X-----X--X--X-|-X--X-----X--X--X--X-----X--X--X-|
G|-0--0-----X--X--0--0-----0--0--X-|-0--0-----X--X--0--0-----0--0--X-|
D|-0--0-----0--0--0--0-----0--0--X-|-0--0-----0--0--0--0-----0--0--X-|
A|-X--X-----X--X--X--X-----X--X--X-|-X--X-----X--X--X--X-----X--X--X-|
D|-5--5--0--4--4--X--X--0--2--2--X-|-5--5--0--4--4--X--X--0--2--2--X-|


VERSE A
"If I had..."                       "I would have..."
e|-X--X--X--X--X--X--X--X--X--X--X-|-X--X--X--X--X--X--X--X--X--X--X-|
B|-X--X--X--X--X--X--X--X--X--X--X-|-X--X--X--X--X--X--X--X--X--X--X-|
G|-0--0--0--0--0--0--0--0--0--0--X-|-0--0--0--0--0--0--0--0--0--0--X-|
D|-0--0--0--0--0--0--0--0--0--0--X-|-0--0--0--0--0--0--0--0--0--0--X-|
A|-X--X--0--X--X--X--X--0--X--0--X-|-X--X--0--X--X--X--X--0--X--X--X-|
D|-5--5--0--4--4--4--4--0--2--2--X-|-5--5--0--4--4--4--4--0--2--0--X-|

"But since..."                     "And it's..."
e|-X--X--X--X--X--X--X--X--X--X--X-|-X--X--X--X--X--X--X--X--X--X--X-|
B|-X--X--X--X--X--X--X--X--X--X--X-|-X--X--X--X--X--X--X--X--X--X--X-|
G|-0--0--0--0--0--0--0--0--0--0--X-|-0--0--0--0--0--0--0--0--0--0--X-|
D|-0--0--0--0--0--0--0--0--0--0--X-|-0--0--0--0--0--0--0--0--0--0--X-|
A|-X--X--0--X--X--X--X--0--X--0--X-|-X--X--0--X--X--X--X--0--X--X--X-|
D|-5--5--0--4--4--4--4--0--2--4--X-|-5--5--0--4--4--4--4--0--2--0--X-|


VERSE B
"C'mon C'com..."                    "C'mon C'com..."
e|-X--X--X--X--X--X--X--X--X--X--X-|-X--X--X--X--X--X--X--X--X--X--X-|
B|-X--X--X--X--X--X--X--X--X--X--X-|-X--X--X--X--X--X--X--X--X--X--X-|
G|-0--0--0--0--0--0--0--0--0--0--X-|-0--0--0--0--0--0--0--0--0--0--X-|
D|-0--0--0--0--0--0--0--0--0--0--X-|-0--0--0--0--0--0--0--0--0--0--X-|
A|-X--X--0--X--X--X--X--0--X--0--X-|-X--X--0--X--X--X--X--0--X--X--X-|
D|-5--5--0--4--4--4--4--0--2--2--X-|-5--5--0--4--4--4--4--0--2--0--X-|

"C'mon C'com..."                    "C'mon C'com..."
e|-X--X--X--X--X--X--X--X--X--X--X-|-X--X--X--X--X--X--X--X--X--X--X-|
B|-X--X--X--X--X--X--X--X--X--X--X-|-X--X--X--X--X--X--X--X--X--X--X-|
G|-0--0--0--0--0--0--0--0--0--0--X-|-0--0--0--0--0--0--0--0--0--0--X-|
D|-0--0--0--0--0--0--0--0--0--0--X-|-0--0--0--0--0--0--0--0--0--0--X-|
A|-X--X--0--X--X--X--X--0--X--0--X-|-X--X--0--X--X--X--X--0--X--X--X-|
D|-5--5--0--4--4--4--4--0--2--4--X-|-5--5--0--4--4--4--4--0--2--0--X-|


VERSE C
"I want to..."                      "Nothing's ever..."
e|-X--X--X--X--X--X--X--X--X--X--X-|-X--X--X--X--X--X--X--X--X--X--X-|
B|-X--X--X--X--X--X--X--X--X--X--X-|-X--X--X--X--X--X--X--X--X--X--X-|
G|-0--0--0--0--0--0--0--0--0--0--X-|-0--0--0--0--0--0--0--0--0--0--X-|
D|-0--0--0--0--0--0--0--0--0--0--X-|-0--0--0--0--0--0--0--0--0--0--X-|
A|-X--X--0--X--X--X--X--0--X--0--X-|-X--X--0--X--X--X--X--0--X--X--X-|
D|-5--5--0--4--4--4--4--0--2--2--X-|-5--5--0--4--4--4--4--0--2--0--X-|

"But if I..."                       "I never..."
e|-X--X--X--X--X--X--X--X--X--X--X-|-X--X--X--X--X--X--X--X--X--X--X-|
B|-X--X--X--X--X--X--X--X--X--X--X-|-X--X--X--X--X--X--X--X--X--X--X-|
G|-0--0--0--0--0--0--0--0--0--0--X-|-0--0--0--0--0--0--0--0--0--0--X-|
D|-0--0--0--0--0--0--0--0--0--0--X-|-0--0--0--0--0--0--0--0--0--0--X-|
A|-X--X--0--X--X--X--X--0--X--0--X-|-X--X--0--X--X--X--X--0--X--X--X-|
D|-5--5--0--4--4--4--4--0--2--4--X-|-5--5--0--4--4--4--4--0--2--0--X-|


CHORUS A (4 times)
"Now you're all..."
e|-----------------------------------X--X--X--X--X--X-|
B|-----------------------------------X--X--X--X--X--X-|
G|-----------------------------------X--X--X--X--X--X-|
D|-----------------------------------0--0--0--0--0--0-|
A|-9--12--7--5--9--7--5--7--5--4--0--0--0--0--0--0--0-|
D|-9--12--7--5--9--7--5--7--5--4--0--0--0--0--0--0--0-|


MID VERSE D
"C'mon C'mon..."                                
e|-X--X-----X--X--X--X-----X--X--X-|-X--X-----X--X--X--X-----X--X--X-|
B|-X--X-----X--X--X--X-----X--X--X-|-X--X-----X--X--X--X-----X--X--X-|
G|-0--0-----X--X--0--0-----0--0--X-|-0--0-----X--X--0--0-----0--0--X-|
D|-0--0-----0--0--0--0-----0--0--X-|-0--0-----0--0--0--0-----0--0--X-|
A|-X--X-----X--X--X--X-----X--X--X-|-X--X-----X--X--X--X-----X--X--X-|
D|-5--5--0--4--4--X--X--0--2--2--X-|-5--5--0--4--4--X--X--0--2--2--X-|


VERSE E
"I like to..."                      "Well you know..."
e|-X--X--X--X--X--X--X--X--X--X--X-|-X--X--X--X--X--X--X--X--X--X--X-|
B|-X--X--X--X--X--X--X--X--X--X--X-|-X--X--X--X--X--X--X--X--X--X--X-|
G|-0--0--0--0--0--0--0--0--0--0--X-|-0--0--0--0--0--0--0--0--0--0--X-|
D|-0--0--0--0--0--0--0--0--0--0--X-|-0--0--0--0--0--0--0--0--0--0--X-|
A|-X--X--0--X--X--X--X--0--X--0--X-|-X--X--0--X--X--X--X--0--X--X--X-|
D|-5--5--0--4--4--4--4--0--2--2--X-|-5--5--0--4--4--4--4--0--2--0--X-|

"But when I..."                     "Oh it wound..."
e|-X--X--X--X--X--X--X--X--X--X--X-|-X--X--X--X--X--X--X--X--X--X--X-|
B|-X--X--X--X--X--X--X--X--X--X--X-|-X--X--X--X--X--X--X--X--X--X--X-|
G|-0--0--0--0--0--0--0--0--0--0--X-|-0--0--0--0--0--0--0--0--0--0--X-|
D|-0--0--0--0--0--0--0--0--0--0--X-|-0--0--0--0--0--0--0--0--0--0--X-|
A|-X--X--0--X--X--X--X--0--X--0--X-|-X--X--0--X--X--X--X--0--X--X--X-|
D|-5--5--0--4--4--4--4--0--2--4--X-|-5--5--0--4--4--4--4--0--2--0--X-|


VERSE F
"Here we are..."                    "I hope this..."
e|-X--X--X--X--X--X--X--X--X--X--X-|-X--X--X--X--X--X--X--X--X--X--X-|
B|-X--X--X--X--X--X--X--X--X--X--X-|-X--X--X--X--X--X--X--X--X--X--X-|
G|-0--0--0--0--0--0--0--0--0--0--X-|-0--0--0--0--0--0--0--0--0--0--X-|
D|-0--0--0--0--0--0--0--0--0--0--X-|-0--0--0--0--0--0--0--0--0--0--X-|
A|-X--X--0--X--X--X--X--0--X--0--X-|-X--X--0--X--X--X--X--0--X--X--X-|
D|-5--5--0--4--4--4--4--0--2--2--X-|-5--5--0--4--4--4--4--0--2--0--X-|

"I never knew..."                   "So now..."
e|-X--X--X--X--X--X--X--X--X--X--X-|-X--X--X--X--X--X--X--X--X--X--X-|
B|-X--X--X--X--X--X--X--X--X--X--X-|-X--X--X--X--X--X--X--X--X--X--X-|
G|-0--0--0--0--0--0--0--0--0--0--X-|-0--0--0--0--0--0--0--0--0--0--X-|
D|-0--0--0--0--0--0--0--0--0--0--X-|-0--0--0--0--0--0--0--0--0--0--X-|
A|-X--X--0--X--X--X--X--0--X--0--X-|-X--X--0--X--X--X--X--0--X--X--X-|
D|-5--5--0--4--4--4--4--0--2--4--X-|-5--5--0--4--4--4--4--0--2--0--X-|


VERSE G
"C'mon C'mon..."                     "C'mon C'mon..."
e|-X--X-----X--X--X--X-----X--X--X-|-X--X-----X--X--X--X-----X--X--X-|
B|-X--X-----X--X--X--X-----X--X--X-|-X--X-----X--X--X--X-----X--X--X-|
G|-0--0-----X--X--0--0-----0--0--X-|-0--0-----X--X--0--0-----0--0--X-|
D|-0--0-----0--0--0--0-----0--0--X-|-0--0-----0--0--0--0-----0--0--X-|
A|-X--X-----X--X--X--X-----X--X--X-|-X--X-----X--X--X--X-----X--X--X-|
D|-5--5--0--4--4--X--X--0--2--2--X-|-5--5--0--4--4--X--X--0--2--2--X-|

"C'mon C'mon..."                     "C'mon C'mon..."
e|-X--X-----X--X--X--X-----X--X--X-|-X--X-----X--X--X--X-----X--X--X-|
B|-X--X-----X--X--X--X-----X--X--X-|-X--X-----X--X--X--X-----X--X--X-|
G|-0--0-----X--X--0--0-----0--0--X-|-0--0-----X--X--0--0-----0--0--X-|
D|-0--0-----0--0--0--0-----0--0--X-|-0--0-----0--0--0--0-----0--0--X-|
A|-X--X-----X--X--X--X-----X--X--X-|-X--X-----X--X--X--X-----X--X--X-|
D|-5--5--0--4--4--X--X--0--2--2--X-|-5--5--0--4--4--X--X--0--2--2--X-|


CHORUS II (4 times)
"Now you're all..."
e|-----------------------------------X--X--X--X--X--X-|
B|-----------------------------------X--X--X--X--X--X-|
G|-----------------------------------X--X--X--X--X--X-|
D|-----------------------------------0--0--0--0--0--0-|
A|-9--12--7--5--9--7--5--7--5--4--0--0--0--0--0--0--0-|
D|-9--12--7--5--9--7--5--7--5--4--0--0--0--0--0--0--0-|


END VERSE H
"Oooohhh..."
e|-X--X-----X--X--X--X-----X--X--X-|-X--X-----X--X--X--X-----X--X--X-|
B|-X--X-----X--X--X--X-----X--X--X-|-X--X-----X--X--X--X-----X--X--X-|
G|-0--0-----X--X--0--0-----0--0--X-|-0--0-----X--X--0--0-----0--0--X-|
D|-0--0-----0--0--0--0-----0--0--X-|-0--0-----0--0--0--0-----0--0--X-|
A|-X--X-----X--X--X--X-----X--X--X-|-X--X-----X--X--X--X-----X--X--X-|
D|-5--5--0--4--4--X--X--0--2--2--X-|-5--5--0--4--4--X--X--0--2--2--X-|

"Oooohhh..."
e|-X--X-----X--X--X--X-----X--X--X-|-X--X-----X--X--X--X-----X--X--X-|
B|-X--X-----X--X--X--X-----X--X--X-|-X--X-----X--X--X--X-----X--X--X-|
G|-0--0-----X--X--0--0-----0--0--X-|-0--0-----X--X--0--0-----0--0--X-|
D|-0--0-----0--0--0--0-----0--0--X-|-0--0-----0--0--0--0-----0--0--X-|
A|-X--X-----X--X--X--X-----X--X--X-|-X--X-----X--X--X--X-----X--X--X-|
D|-5--5--0--4--4--X--X--0--2--2--X-|-5--5--0--4--4--X--X--0--2--2--X-|


CODA
e|----------------------------|
B|----------------------------|
G|----------------------------|
D|----------------------------|
A|----------------------------|
D|-9--12--7--5--9--7--5--4--0-|
Tap to rate this tab
# A B C D E F G H I J K L M N O P Q R S T U V W X Y Z