Song name
# A B C D E F G H I J K L M N O P Q R S T U V W X Y Z

Slank - Monogami tab

Judul		: Monogami
Artis/Band      : Slank


Guitar1 @intro
e|------------------------|
B|-----7---7---5---5---5--|
G|--/7---7---7---7---7----|
D|------------------------|
A|------------------------|
E|------------------------|


Guitar2 @intro
e|---------10----------9-10-9----------10----------9-10-9-------|
B|--7-8-10------7-8-10----------7-8-10------7-8-10--------10-7--|
G|--------------------------------------------------------------|
D|--------------------------------------------------------------|
A|--------------------------------------------------------------|
E|--------------------------------------------------------------|



Guitar2 @akulah si burung merpati... (before solo)
e|-------10----------10--------10-----------10-------10----------10--|
B|----10----10----10--------10----10-----10-------10----10----10-----|
G|--9-----------9--------11-----------11--------9-----------9--------|
D|-------------------------------------------------------------------|
A|-------------------------------------------------------------------|
E|-------------------------------------------------------------------|

e|--------10-----------10-------10----------10-----------------------|
B|-----10----10-----10-------10----10----10-------10---10---10---10--|
G|--11-----------11--------9-----------9--------9----9----9----9-----|
D|-------------------------------------------------------------------|
A|-------------------------------------------------------------------|
E|-------------------------------------------------------------------|

e|------------------------------------------------------12----12----12----12--|
B|-----10----10----10----10----10----10----10----10--14----14----14----14-----|
G|--11----11----11----11----11----11----11----11------------------------------|
D|----------------------------------------------------------------------------|
A|----------------------------------------------------------------------------|
E|----------------------------------------------------------------------------|


Solo
e|----------------------------------------------------------------------------|
B|-------------------5b6---5p3------------------------------------------------|
G|---------5-5-----------------5----------------------------------------------|
D|-----5---------7---------------7-7---7-5---5--------------------------------|
A|--/7---7---------------------------------7---7p5---4---7--5-7-5--------4b5--|
E|-------------------------------------------------7--------------5-3-5-------|

e|------------------------------------------------------------|
B|------10--8---5---5-----5---5---------------/10-10-10-10p8--|
G|----------------7-----7---7---7h9p7p5---5-------------------|
D|--------------------------------------7---------------------|
A|--5-7-------------------------------------------------------|
E|------------------------------------------------------------|

e|--15h17-17-17-15h17-17-17-15h17-17-17--15-15-15-15-15-15-15-15-14-14--10-12-10--|
B|--------------------------------------------------------------------------------|
G|--------------------------------------------------------------------------------|
D|--------------------------------------------------------------------------------|
A|--------------------------------------------------------------------------------|
E|--------------------------------------------------------------------------------|

e|--12p10p9------9----------------------------------------------------------|
B|----------10-8-----9p7---7------------------------------------------------|
G|-----------------------9---9\-----5-7--5-7-7/9--9p7p5---5-7--9p7p5---5-7--|
D|--------------------------------7---------------------7------------7------|
A|--------------------------------------------------------------------------|
E|--------------------------------------------------------------------------|

e|---------------------------------------------------|
B|---------------------------------------------------|
G|--9p7p5---5-7--9p7p5---5-7--9p7p5---5-7--9p7p5-----|
D|--------7------------7------------7------------7---|
A|---------------------------------------------------|
E|---------------------------------------------------|
Tap to rate this tab
# A B C D E F G H I J K L M N O P Q R S T U V W X Y Z