Song name
# A B C D E F G H I J K L M N O P Q R S T U V W X Y Z

Slapdash - A Night On The Town tab

Help us improve GuitareTab! Take a short survey!
Intro:

E|-555-444-555-4-5-4-5-4-555-444-555------|
B|----------------------------------------|  
G|------------------------------------4---|
D|----------------------------------------|
A|----------------------------------------|
E|----------------------------------------|

Main part of the song, mainly in the verse:

E|------------------------------------------------------------------|
B|------------------------------------------------------------------|
G|-2-6-9-8-9-11-9-1313-14-13-1414-13-14-16-14-13-9------------------|
D|------------------------------------------------------------------|
A|------------------------------------------------------------------|
E|------------------------------------------------------------------|

E|------------------------------------------------------------------|
B|------------------------------------------------------------------|
G|------------------------------------------------------------------|
D|-----------6-7/6--------------------------------------------------|
A|-2-6-7------------------------------------------------------------|
E|------------------------------------------------------------------|
Related for A Night On The Town tab