Song name
# A B C D E F G H I J K L M N O P Q R S T U V W X Y Z

Slapshock - Dead Like tab

Title: Dead Like
Artist: Slapshock
Tabbed by: Galera, Mark JEsson
Text Me: 09198408399
   
                   This is the new song of Slapshock
                         Please support this song..
                           SLapshock ruLEs!

Intro and Verse

D----------------------------------------------|
A----------------------------------------------|
F----------------------------------------------|
C-----99------99-----101010-----1010-----------|
G--77------77-----88---------88----------------|
C--77------77-----88---------88----------------|

Then

D----------------------------------------------|
A----------------------------------------------|
F----------------------------------------------|
C-----99------99-----101010-----1010-----------|
G--77------77-----88---------88----------------|
C--77------77-----88---------88----------------|
  pm   pm   pm    pm    pm        pm      pm

Chorus:

D------------------------------------|
A------------------------------------|
F-99999---77777----99999--77777------|
C-xxxxx---xxxxx----xxxxx--xxxxx------|
G-77777---55555----77777--55555------|
C------------------------------------|

VErse:

D----------------------------------------------|
A----------------------------------------------|
F----------------------------------------------|
C-----99------99-----101010-----1010-----------|
G--77------77-----88---------88----------------|
C--77------77-----88---------88----------------|

Then

D----------------------------------------------|
A----------------------------------------------|
F----------------------------------------------|
C-----99------99-----101010-----1010-----------|
G--77------77-----88---------88----------------|
C--77------77-----88---------88----------------|
  pm   pm   pm    pm    pm        pm      pm

Chorus:

D------------------------------------|
A------------------------------------|
F-99999---77777----99999--77777------|
C-xxxxx---xxxxx----xxxxx--xxxxx------|
G-77777---55555----77777--55555------|
C------------------------------------|

Bridge part:


D---------------------------------------------|
A---------------------------------------------|
F-99999---77777----5555---9999----7777---5555-|
C-99999---77777----5555---9999----7777---5555-|
G-77777---55555----3333---7777----5555---3333-|
C---------------------------------------------|

Guitar 2:


D------------------------------------|
A------------------------------------|
F-5555---/-7777----------------------|
C-xxxxx--/-xxxxx---------------------|
G-33333--/-55555---------------------|
C------------------------------------|

Chorus:

D------------------------------------|
A------------------------------------|
F-99999---77777----99999--77777------|
C-xxxxx---xxxxx----xxxxx--xxxxx------|
G-77777---55555----77777--55555------|
C------------------------------------|
Tap to rate this tab
 
# A B C D E F G H I J K L M N O P Q R S T U V W X Y Z