Song name
# A B C D E F G H I J K L M N O P Q R S T U V W X Y Z

Slapshock - Sigaw tab

INTRO
e   --------------------------------------|
b   --------------------------------------|
g   --77/88\77-333-555555-----------------|
d   --------------------------------------|        3x
a   --55/66\55-111-333333-----------------|
e   --------------------------------------|


e   --------------------------------------|
b   --------------------------------------|
g   --77/88\77/11 11 11 11 11-------------|
d   --------------------------------------|       let ring
a   --55/66\55/9 9 9 9 9------------------|
e   --------------------------------------|

VERSE

Sumikat na ang……………. araw
e   -----------------------------------------|
b   -----------------------------------------|
g   --7777777777777777773333333355555555-----|
d   -----------------------------------------|       palm mute
a   --5555555555555555551111111133333333-----|
e   -----------------------------------------|

PRE CHORUS

Buksan mo ang iyong mata
e   --------------------------------------|
b   --------------------------------------|
g   --77/88\77/66-1010-88-77--------------|
d   --------------------------------------|       3x
a   --55/66\55/66-8-8--66-55--------------|
e   --------------------------------------|

e   --------------------------------------|
b   --------------------------------------|
g   --77777777777777777777----------------|
d   --------------------------------------|
a   --55555555555555555555----------------|
e   --------------------------------------|


CHORUS

Sa……………. bawat ……pagikot ng mundo


e   -----------------------------------------------------|
b   -----------------------------------------------------|
g   --77777777333333335555555555555555-------------------|
d   -------------------------------------- --------------|
a   --55555555111111113333333333333333-------------------|
e   -----------------------------------------------------|


repeat verse
repeat chorus


BRIDGE

Nalunod sa luha                                 itinapon
e   ------------------------------------------------------|
b   ------------------------------------------------------|
g   --------7-----------------------------3---------------|
d   ------------let ring-------------------------let ring-|    2x
a   --------5-----------------------------1---------------|
e   ------------------------------------------------------|


Apoy sa puso moy iyong isigaw…

e   ---------------------------------------------------------------|
b   ---------------------------------------------------------------|
g   --------777777777777777777777----------------------------------|
d   ------------ --------------------------------keep strumming----|
a   --------555555555555555555555----------------------------------|
e   ---------------------------------------------------------------|


repeat chorus


sana magustuhan nyo
gud luck!!!!!
Tap to rate this tab
# A B C D E F G H I J K L M N O P Q R S T U V W X Y Z