Guitaretab - guitar tabs
Song name
# A B C D E F G H I J K L M N O P Q R S T U V W X Y Z

Slapshock - We Are One tab

Slapshock
We Are One
Phyknot666666
simply_jmz214@yahoo.com
 (low to high) C#,F#,B,E,G#,C#
Keys
PM = Palm Mute
h=hammer-on

	Intro.
   Gtr 1
C#|---------------------------------------|
G#|---------------------------------------|
E |---------------------------------------|
B |---------------------------------------| 2X
F#|---------------------------------------|
C#|-1-0--0-0-0-1-0-0-0-0-1-0--00-0-1-0--|

   Gtr 1
C#|----------------------------------------------|
G#|----------------------------------------------|
E |----------------------------------------------|
B |---------------------------------------XX-XX--|
F#|---------------------------------------XX-XX--|
C#|-1-0--0-0-0-1-0-0-0-0-1-0--00-0-1-0--XX-XX--|
  |Gtr 2                                         |
C#|----------------------------------------------|
G#|----------------------------------------------|
E |----------------------------------------------|
B |---------------------------------------XX-XX--|
F#|-0---------------------------2--2--2---XX-XX--|
C#|-2---------------------------0--0--0---XX-XX--|


Main Riff                                
C#|----------------------------------------------|
G#|----------------------------------------------|
E |----------------------------------------------|
B |---------------------------------------XX-XX--| X4
F#|-3-2--2-2-2-1-2--2-2-2-3-2--2-2-2-3-2--XX-XX--|
C#|-1-0--0-0-0-1-0-0-0-0-1-0--00-0-1-0--XX-XX--|

RIFF 1
C#|------------------------------------------------------|
G#|------------------------------------------------------|
E |------------------------------------------------------|
B |----------------------------------------------9----9--|  
F#|-7-7-7-7-7-8-7--77-7-7-5-7-7-7-7-7-8-7-77---77----|
C#|------------------------------------------------------|
  PM . . . . . . .  . . . . . .  . . . . . .  ..   ..

RIFF 2
C#|------------------------------------------------------|
G#|------------------------------------------------------|
E |------------------------------------------------------|
B |-------------------------------------------------9----|  X4
F#|-7-7-7-7-7-8-7--77-7-7-5-7-7-7-7-7-8-7-7-7-7---7--|
C#|------------------------------------------------------|
  PM . . . . . . .  . . . . . .  . . . . . .  . . .   . .
[ Tab from: http://www.guitaretab.com/s/slapshock/134778.html ]
Riff 3
C#|---------------------------------------------|
G#|---------------------------------------------|
E |---------------------------------------------|
B |-----------------9--11-----------------9-----| X4
F#|-------h---------7--9--------h---------7-----| 
B |--0-0-0-1-00--0--------0-0-0-1-0-0--0-------|
                              

PRE CHORUS
C#|------------------------|
G#|------------------------|
E |------------------------|
B |---9--------------------| 
F#|---7----2---------------| 
C#|---0----0---------------|
Let Ring . . . . . . . . .  

CHORUS 
C#|----------------------------------------------|
G#|----------------------------------------------|
E |----------------------------------------------|
B |----------------------------------------------|3X
F#|-3-2--2-2-2-3-2--2-2-2-3-2--2-2-2-3-2--2-2-2--|
C#|-1-0--0-0-0-1-0-0-0-0-1-0--00-0-1-0-0-0-0--|


RIFF 3
C#|---------------------------------------------|
G#|---------------------------------------------|
E |---------------------------------------------|
B |--5---------7---------2----------------------| 
F#|--5---------7---------2----------------------| 
C#|--3---------5---------0----------------------|
Let Ring . . . . . . . . . . . . . . . . . . . . 

Main Riff 2X
Riff 1
Riff 2
Riff 3
Pre Chorus
Chorus
Main Riff

Riff 4
Gtr 1
C#|---------------------------------------------|
G#|---------------------------------------------|
E |--9-8-9-9-9-9-9-9-9----9-8-9-9-9-9-9-9-8---|
B |---------------------------------------------|     
F#|---------------------------------------------| 
C#|---------------------------------------------|
  |Gtr 2                                        | X7
C#|---------------------------------------------|
G#|---------------------------------------------|
E |---------------------------------------------|
B |---------------------------------------------|  
F#|--3-2-------------------3-0------------------|                                                 
C#|--1-0-------------------1-0------------------|                       

  Both Gtr
C#|------------------------------|
G#|------------------------------|
E |------------------------------|
B |------------------------------|  
F#|--2--2-2-2--2--2-2--2-2-2---|                                                 
C#|--0--0--0--0--0--0-0--0-0-0---|                        
  PM .  .  .  .  .  . .  . . .

Bridge
C#|---------------------|
G#|---------------------|
E |---------------------|
B |---------------------| X7
F#|-3-2-2-2--2-2-2-2-2--|                                                 
B |-1-0-0-0--0-0-0-0-0--|
PM  . . . .  . . . . . 


Pre Chorus
Chorus
Main Riff
Riff 3 X3
Main Riff
End
Related for We Are One tab