Song name
# A B C D E F G H I J K L M N O P Q R S T U V W X Y Z

Slapshock - Miles Away tab

subukan nyo nga to.. katunong kasi eh.. 

Tuning:Drop D 
/ slide


Intro:
|--------------------------------------------------------------|
|--------------------------------------------------------------|
|--7-7----3-3---5-5--------------------------------------------|
|--7-7----1-1---3-3--------(4x)--------------------------------|
|--5-5----1-1---3-3--------------------------------------------|
|--5-5----1-1---3-3--------------------------------------------|

Verse: 1 & 2
|-------------------------------------------------------------|
|-------------------------------------------------------------|
|----7-------7---------3---/----5-----------------------------|
|---7-7-----7-7-------1-1--/---3-3------------(6x)------------|
|--5---5---5---5-----1---1-/--3---3---------------------------|
|-5-----5-5-----5---1--------3--------------------------------|

Chorus:
|-------------------------------------------------------------|
|-------------------------------------------------------------|
|--7-7-7-7-7---12-12-12-12-12-5-5-5-5--\--7-7-7-7-------------|
|--7-7-7-7-7---12-12-12-12-10-3-3-3-3--\--5-5-5-5---(2x)------|
|--5-5-5-5-5---10-10-10-10-10-3-3-3-3--\--5-5-5-5-------------|
|--5-5-5-5-5---10-10-10-10-10-3-3-3-3--\--5-5-5-5-------------|


Bridge:

|----------------------------|
|----------------------------|
|----------------------------|
|-5-0-5-5-0-5-5-0-5-10-9-3-5-|
|-5-0-5-5-0-5-5-0-5-10-9-3-5-|
|-5-0-5-5-0-5-5-0-5-10-9-3-5-|

paki rate nalang pwede.. gsto ko lang malaman kung ano kinalabasan neto.. email nyo
nalang ako kung may tanong ejoflores@hotmail.com

Tap to rate this tab
# A B C D E F G H I J K L M N O P Q R S T U V W X Y Z