Song name
# A B C D E F G H I J K L M N O P Q R S T U V W X Y Z

Slapshock - Waiting tab

----------------------------------------------------------------------------
			     WAITING - Slapshock
----------------------------------------------------------------------------
Tabbed by: John Paul del Mundo, 15 yrs. old
Email: metalhead_017@rock.com (Friendster), collage_the_band@yahoo.com (YM)

Remember, this must be tuned Drop D a whole step down, dont be too stupid to follow just 
a simple instruction and play it in standard, it WILL NOT sound right, and you will sound 
like a retard.

Tuning: CGCFAD (Low to High)

Guitar 1 Intro:
D|-------------------------------------------------------------------------|
A|-------------------------------------------------------------------------|
F|-----------------16--------17--------16--------12------------------------|
C|-----------------x---(x8)--x---(x8)--x---(x8)--x---(x32)-----------------|
G|--7--7-7-7-7-7---14--------15--------14--------10------------------------|
C|--7--7-7-7-7-7-----------------------------------------------------------|

Guitar 2 Intro:
D|-------------------------------------------------------------------------|
A|-------------------------------------------------------------------------|
F|-------------------------------------------------------------------------|
C|-------------------------------------------------------------------------|
G|--7--7-7-7-7-7-7-7-7-7-7-7-7-7-7-7-7-7-7-7-7-7-3-3-3-3-3-3-3-3-3-3-3-3-3-|
C|--7--7-7-7-7-7-7-7-7-7-7-7-7-7-7-7-7-7-7-7-7-7-3-3-3-3-3-3-3-3-3-3-3-3-3-|

You play the Intro X2

Note: The strumming for Guitar 2 is not exact, just listen to the CD so you can get how 
many times you need to strum each chord.

Guitar 1 Verse:
D|----------15-----------|(Basically Guitar 1 just does this Figure for the
A|-12-13-12----13-12-13--| entire verse)
F|-----------------------|
C|-----------------------|
G|-----------------------|
C|-----------------------|

Guitar 2 Verse:
D|-------------------------------------------------------------------------|
A|-------------------------------------------------------------------------|
F|-------------------------------------------------------------------------|
C|-------------------------------------------------------------------------|
G|--7~---7-7-7-7-7-7-7-7-7-7-7-7-7-7-7-3-3-3-3-3-3-3-3-3-3-3-3-3-3-3-3-3-3-|
C|--7~---7-7-7-7-7-7-7-7-7-7-7-7-7-7-7-3-3-3-3-3-3-3-3-3-3-3-3-3-3-3-3-3-3-|

Note: The first chord in this figure, when it rings out, it should be distorted, then as
 it disappears, change to clean and switch to the chord at the 3rd fret, for the 2nd 
time you're doing this, remove the rung out chord at the 7th fret.


Guitar 1 Chorus:
D|-------------------------------------------------------------------------|
A|-------------------------------------------------------------------------|
F|-------------------------------------------------------------------------|
C|-------------------------------------------------------------------------|
G|--7-7--7-7-7-7-7-7--7-7--7-7--7-7-7-7-7-7--7-7---------------------------|
C|--7-7--7-7-7-7-7-7--7-7--7-7--7-7-7-7-7-7--7-7---------------------------|

D|-------------------------------------------------------------------------|
A|-------------------------------------------------------------------------|
F|-------------------------------------------------------------------------|
C|-------------------------------------------------------------------------|
G|--3-3-3-3-3-3-3-3-3-3-3-3-3-3-3-3-3-3-3-3-3-3-3--------------------------|
C|--3-3-3-3-3-3-3-3-3-3-3-3-3-3-3-3-3-3-3-3-3-3-3--------------------------|

Guitar 2 Chorus:
D|-------------------------------------------------------------------------|
A|-------------------------------------------------------------------------|
F|-------------------------------------------------------------------------|
C|-------------------------------------------------------------------------|
G|--------21-------21-------21-------21-------21-------21-------21-------21|
C|--19-19----19-19----19-19----19-19----19-19----19-19----19-19----19-19---|

D|-------------------------------------------------------------------------|
A|-------------------------------------------------------------------------|
F|-------------------------------------------------------------------------|
C|-------------------------------------------------------------------------|
G|-------21-------21--3-3-3-3-3-3-3-3-3-3-3-3-3-3-3-3-3-3-3-3-3-3-3-3------|
C|-19-19----19-19-----3-3-3-3-3-3-3-3-3-3-3-3-3-3-3-3-3-3-3-3-3-3-3-3------|

Guitar 1 and Guitar 2 Post Chorus:

D|-------------------------------------------------------------------------|
A|-------------------------------------------------------------------------|
F|-------------------------------------------------------------------------|
C|-------------------------------------------------------------------------|
G|-----10---8---7---7---10---8---7---7--------5-5-5-5-5-5-------7-7-7-7-7-7|
C|---7----7---7---7---7---7---7---7-----3-3-3-------------5-5-5------------|
P.M. -    -   -   -   -   -   -   -     - - -             - - -|

D|-------------------------------------------------------------------------|
A|-------------------------------------------------------------------------|
F|-------------------------------------------------------------------------|
C|-------------------------------------------------------------------------|
G|-----10---8---7---7---10---8---7---7--------5-5-5-5-5-5------------------|
C|---7----7---7---7---7---7---7---7-----3-3-3-------------5----------------|
P.M. -    -   -   -   -   -   -   -     - - -             -|


Repeat Verse
Repeat Chorus
Repeat Post Chorus x2
Repeat Chorus
Repeat Intro

Outro Lead Guitar 1

D|--------15-12-------15-------15-12----------15-------------15-12---------|
A|--12-13-------12-13----12-13-------13-12-13----12-13-12-13---------------|
F|-------------------------------------------------------------------------|
C|-------------------------------------------------------------------------|
G|-------------------------------------------------------------------------|
C|-------------------------------------------------------------------------|

D|--------15-------15-12---12----------------------------------------------|
A|--12-13----12-13------------13-12----------------------------------------|
F|----------------------------------14-------------------------------------|
C|-------------------------------------14----------------------------------|
G|----------------------------------------15-14-12---7~--------------------|
C|---------------------------------------------------7~--------------------|

Outro Guitar 2:
D|---------------|  Repeat this as many times as necessary, listen to the CD
A|---------------|  to get the timing right.
F|---------------|
C|---------------|
G|---7~-----3~---|
C|---7~-----3~---|

The End!
============================================================================
| /  slide up
| \  slide down
| h  hammer-on
| p  pull-off
| ~  vibrato
| +  harmonic
| x  Mute note
============================================================================
Tap to rate this tab
# A B C D E F G H I J K L M N O P Q R S T U V W X Y Z