Song name
# A B C D E F G H I J K L M N O P Q R S T U V W X Y Z

Slapshock - Adios tab

ADIOS- SLAPSHOCK

Daryl Jaws Vince (jao19_roe@yahoo.com)

try q lng
=======================
Tuning: Drop C (CGCFAD)
=======================
================
 / - Slide up
 \ - Slide down
 h - Hammer-on
 x - Pause/Mute
 ~ - Let ring
 * - Palm mute
================


========
Intro guitar 2
========


D|------------------------------------------------------------------------------|
A|------------------------------------------------------------------------------|
F|------------------------------------------------------------------------------|  Repeat
C|-------------------------------8-/-7------------------------------------------| 4 Times
G|--0-0-0-0-0-0-0-0-0-----6/--5-------------------------------------------------|
C|--0-0-0-0-0-0-0-0-0-----------------------------------------------------------|

======
Verse:
======

       Nag-iiba na ang..          ..iyong anyo..
D|---------------------------------------------------------------------------------------|
A|---------------------------------------------------------------------------------------|
F|---------------------------------------------------------------------------------------|
C|---------------------------------------------------------------------------------------|
G|----555555555555-----------------------------------------------------------------------|
C|----------------------------------88888888888------------------------------------------|
     *  *  *  *  *  *  *  *        * * * * * * * *

       Nagtataka sa mga..          .

D|---------------------------------------------------------------------------|
A|---------------------------------------------------------------------------|
F|---------------------------------------------------------------------------|
C|---------------------------------------------------------------------------|
G|---------------------------------------------------------------------------|
C|--00000000000000--------8888888--------------------------------------------|
     *  *  *  *  *  *  *  *        * * * * * *

========
Refrain:
========

        Sa tuwing lumalayo..                  ..ika'y lumalapit

D|-------------------------------|
A|-------------------------------|
F|-------------------------------|
C|--5h7-7--7-7----5h7---7--7--7--|
G|--3h5-5--5-5----3h5---5--5--5--|
C|-------------------------------|

                                                                                         
                          4x

                                          ..(Nalunod ka sa pag ibig!)..
D|------------------------------------------------------------------------------------|
A|------------------------------------------------------------------------------------|
F|------------------------------------------------------------------------------------|
C|--7h8-8-8-8---7-8-8--8----7h8-8-8-8---7h8-8-8-8-------------------------------------|
G|--7h8-8-8-8---7-8-8--8----7h8-8-8-8---7h8-8-8-8-------------------------------------|
C|--7h8-8-8-8---7-8-8--8----7h8-8-8-8---7h8-8-8-8-------------------------------------|


===========
Pre-Chorus:
===========

    Saan ka ba..

D|---------------------------------------------------------------------------|
A|---------------------------------------------------------------------------|
F|---------------------------------------------------------------------------|
C|--0-x-0-0-x-0-x------------------------------------------------------------|
G|--0-x-0-0-x-0-x-----5-5-5-7-7-8-8-8----------------------------------------|
C|--0-x 0-0-x-0-x------------------------------------------------------------|
 			  * * *  * *  * *


                                                                                         
                      (2x)
    Liligaya..

D|----------------------------------------------------------------------------------|
A|----------------------------------------------------------------------------------|
F|----------------------------------------------------------------------------------|
C|--8--x--8-8--x--8--x--------8-8-7-7-----------------------------------------------|
G|--8--x--8-8--x--8--x-------------------8-8----------------------------------------|
C|--8--x--8-8--x--8--x--------------------------------------------------------------|
			    *  *  *   *  *    *  *
then:

D|--------------------------------------------------------------------------------|
A|--------------------------------------------------------------------------------|
F|--------------------------------------------------------------------------------|
C|---0----3----5-----8-------10---10--10------------------------------------------|
G|---0----3----5-----8-------10---10--10------------------------------------------|
C|---0----3----5-----8-------10---10--10------------------------------------------|

=======
Chorus:
=======

Rhythm Guitar:

	Iniwan na sa pag-idlip..    ako'y di na magbabalik

D|----------------------------------------------------------|
A|----------------------------------------------------------|
F|----------------------------------------------------------|
C|------77777777777777777------------333333333333333333333--|
G|------55555555555555555------------111111111111111111111--|
C|----------------------------------------------------------|


Lead Guitar:

D|----------------------------------------------------------------|
A|----------------------------------------------------------------|
F|----------------------------------------------------------------|   Repeat
C|----------------------------------------------------------------|  4 Times
G|-------------5-5-8-5-8-5-7-8--------5-5-8-5-8-5-7-8-------------|
C|----------------------------------------------------------------|

===============
Repeat Intro :
===============

========
Verse 2:
========
same as verse 1

==============
Repeat Refrain
==============

=================
Repeat Pre-Chorus
=================

================
Repeat Chorus 2x
================

=======
Bridge:
=======

Rhythm Guitar:

D|-------------------------------------------------------------------------|
A|-------------------------------------------------------------------------|
F|-------------------------------------------------------------------------|
C|-------------------------------------------------------------------------|
G|-------------------------------------------------------------------------|
C|-----0-0-0-0-0-0-0-0-0-0-0-0-0-0-0----------------8-8-8-8-8-8-8-8-8-8-8--|

Lead Guitar:
D|-----------------------------------------------------------------------------------|
A|-----------------------------------------------------------------------------------|
F|------12---/---10---/----9---/---7-------------------------------------------------|
C|-----------------------------------------------------------------------------------|
G|------10---/---8-----/---7--/----5-------------------------------------------------|
C|-----------------------------------------------------------------------------------|
       *  *  *  *   * 			*  *  *  *   *


D|-------------------------------------------------------------------------|
A|-------------------------------------------------------------------------|
F|-------------------------------------------------------------------------|
C|---8~--------------------------------------------------------------------|
G|---8~--------------------------------------------------------------------|
C|---8~--------------------------------------------------------------------|


E|---------------------------------------------------------------------------|
B|---------------------------------------------------------------------------|
G|---------------------------------------------------------------------------|
D|- -0-0---0-0---0-00-0-0----0-0---0-0---0-0-0-0-0---------------------------|
A|---0-0---0-0---0-00-0-0----0-0---0-0---0-0-0-0-0---------------------------|
D|---0-0---0-0---0-00-0-0----0-0---0-0---0-0-0-0-0---------------------------|
      *  *    *  *    *  *  *  *  *    *  *    *  *    *  *  *  *  *


E|---------------------------------------------------------------------------|
B|---------------------------------------------------------------------------|
G|---------------------------------------------------------------------------|
D|----8--8--8--8--8--8---8-8-8-8-8-8-8-8-8-----------------------------------|
A|----8--8--8--8--8--8----8-8-8-8-8-8-8-8-8----------------------------------|
D|----8--8--8-8-8-8-8-8-8----------8--8-8-8-8-8--8---------------------------|
      *  *    *  *    * * * * * *    *  *    *  *    * * * * * *


D|--------------------------------------------------------------------------------|
A|--------------------------------------------------------------------------------|
F|--------------------------------------------------------------------------------|
C|---0----3----5-----8-------10---10--10------------------------------------------|
G|---0----3----5-----8-------10---10--10------------------------------------------|
C|---0----3----5-----8-------10---10--10------------------------------------------|


sbhin nyo pg my mali
Tap to rate this tab
 
# A B C D E F G H I J K L M N O P Q R S T U V W X Y Z