Song name
# A B C D E F G H I J K L M N O P Q R S T U V W X Y Z

Slapshock - Lies tab

Help us improve GuitareTab! Take a short survey!
Title: Lies
Artist: Slapshock
Tabbed by: Galera, MArk
Text Me: 09198408399
                
                        This is the new song of Slapshock
                     Please suppor this song...and their album
          
Intro: ( Di ko alam un intro na isa)

e-----------------------------------------------------|
b-----------------------------------------------------|
g-----------------------------------------------------|
D--------------111-h-33---------------111-h-3---------|
A--------------111-h-33---------------111-h-3---------|
D--5h6-55-3h5--111-h-33---5h6-55-3h5--111-h-3---------|

Guitar 2:

e----------------|
b----------------|
g----------------|
D----------------|
A----------------|
D-5h6h55h6h55h66-|

Verse

e-----------------------------------------------------|
b-----------------------------------------------------|
g-----------------------------------------------------|
D--------------111-h-33---------------111-h-3---------|
A--------------111-h-33---------------111-h-3---------|
D--5h6-55-3h5--111-h-33---5h6-55-3h5--111-h-3---------|

Guitar 2 : ( 00:56)

e----------------|
b----------------|
g----------------|
D-999\1111-------|
A----------------|
D----------------|


e-----------------------------------------------------|
b-----------------------------------------------------|
g-----------------------------------------------------|
D--------------111-h-33---------------111-h-3---------|
A--------------111-h-33---------------111-h-3---------|
D--5h6-55-3h5--111-h-33---5h6-55-3h5--111-h-3---------|

Guitar 2 : (01:09)
e--------------------------|
b-9p10-99--7h9-555h7p5-----|
g--------------------------| 2x
D--------------------------|
A--------------------------|
D--------------------------|

Chorus:


e---------------------------------------------------|
b---------------------------------------------------|
g---------------------------------------------------|
D---666--222--444----111----666--222--444--111------|
A---666--222--444----111----666--222--444--111------|
D---666--222--444----111----666--222--444--111------|

Related for Lies tab