Song name
# A B C D E F G H I J K L M N O P Q R S T U V W X Y Z

Slapshock - Stranded tab

Help us improve GuitareTab! Take a short survey!
		       "Stranded"
     	     	      (Slapshock)

Tuning: Drop C

intro:  c [-0-0--1-0-1-0-000-1-0-1-0--0-3-0---------0-0--1-0-1-0-000-1-0-1-0--0-----]
	g [---------------------------------------------------------------------3-5-]	
	c [-------------------------------------------------------------------------]    (2X)
	f [-------------------------------------------------------------------------]
	a [-------------------------------------------------------------------------]
	d [-------------------------------------------------------------------------]


	c [------------------------------------]
	g [--8-0-0-8-0-0-8-0-7-0-0-7-0-0-7-0---]
	c [------------------------------------]
	f [-10----10----10---9-----9-----9-----]
	a [------------------------------------]
	d [------------------------------------]

1st stanza:
        c [--0-000----------000-000-0-10-12---------0-000--------------------10-12--]
	g [-------17-------------------------------------17------8-0-0-7-0-0--------]
	c [-------------------------------------------------------------------------]
	f [-------19-------------------------------------19-----10-----9------------]
	a [-------------------------------------------------------------------------]
	d [-------------------------------------------------------------------------]

	c [--0-000----------000-000-0-10-12---------0-000--------------------10-12-0-0-----0-0-]
	g [-------17-------------------------------------17------8-0-0-7-0-0-------0-0-----0-0-]
	c [------------------------------------------------------------------------------------]
	f [-------19-------------------------------------19-----10-----9-----------------------]
	a [------------------------------------------------------------------------------------]
	d [------------------------------------------------------------------------------------]

	c [--0-000----------000-000-0-10-12---------0-000--------------------10-12--]
	g [-------17-------------------------------------17------8-0-0-7-0-0--------]
	c [-------------------------------------------------------------------------]
	f [-------19-------------------------------------19-----10-----9------------]
	a [-------------------------------------------------------------------------]
	d [-------------------------------------------------------------------------]

	c [-0-000------000-000-0-10-12----0-000---------------------------------------------------------]
	g [------17----------------------------17----8-0-0-8-0-0-8-0-7-0-0-7-0-0-7-0-8-8-8-8-8-8-8-8----]
	c [---------------------------------------------------------------------------------------------]
	f [------19----------------------------19---10----10----10---9-----9-----9---1010101010101010---]
	a [---------------------------------------------------------------------------------------------]
	d [---------------------------------------------------------------------------------------------]

CHORUS:
	c [-8-8-8-8-8-8-8-8-8-8-8-8-10-10-10-10-10-10-10-10-10-10-10-10-10-10-10-3-3-3-3-2-2-2-2-0-0-0-0-]
	g [-8-8-8-8-8-8-8-8-8-8-8-8-10-10-10-10-10-10-10-10-10-10-10-10-10-10-10-3-3-3-3-2-2-2-2-0-0-0-0-]
	c [-8-8-8-8-8-8-8-8-8-8-8-8-10-10-10-10-10-10-10-10-10-10-10-10-10-10-10-3-3-3-3-2-2-2-2-0-0-0-0-]
	f [10-10-10-10-10-10-10-10--12-12-12-12-12-12-12-12-12-12-12-12-12-12-12-----------------2-2-2-2-]
	a [11-11-11-11-11-11-11-11--13-13-13-13-13-13-13-13-13-13-13-13-13-13-13-------------------------]
	d [-8-8-8-8-8-8-8-8-8-8-8-8-10-10-10-10-10-10-10-10-10-10-10-10-10-10-10-------------------------]
		i  	woke     up     	in     your    bed            im    stranded here with you
  	
	
	c [-8-8-8-8-8-8-8-8-8-8-8-8-10-10-10-10-10-10-10-10-10-10-10-10-10-10-10-3-3-3-3-2-2-2-2-0-0-0-0-]
	g [-8-8-8-8-8-8-8-8-8-8-8-8-10-10-10-10-10-10-10-10-10-10-10-10-10-10-10-3-3-3-3-2-2-2-2-0-0-0-0-]
	c [-8-8-8-8-8-8-8-8-8-8-8-8-10-10-10-10-10-10-10-10-10-10-10-10-10-10-10-3-3-3-3-2-2-2-2-0-0-0-0-]
	f [10-10-10-10-10-10-10-10--12-12-12-12-12-12-12-12-12-12-12-12-12-12-12-----------------2-2-2-2-]
	a [11-11-11-11-11-11-11-11--13-13-13-13-13-13-13-13-13-13-13-13-13-13-13-------------------------]
	d [-8-8-8-8-8-8-8-8-8-8-8-8-10-10-10-10-10-10-10-10-10-10-10-10-10-10-10-------------------------]
		i       will     stay               if   you  may         for  another   day  or  two


	c [-------------------------------------------------------------------------]
	g [-8-8-8-8-8-8-8-8-8-8-8-8-10-10-10-10-10----------------------------------]	
	c [-------------------------------------------------------------------------]
	f [10-10-10-10-10-10-10-10--12-12-12-12-12----------------------------------]
	a [-------------------------------------------------------------------------]
	d [-------------------------------------------------------------------------]
    coz im stranded here with you   ooohhhhh

	
	c [-0-0--1-0-1-0-000-1-0-1-0--0-3-0---------0-0--1-0-1-0-000-1-0-1-0--0-----]	   [-0-0----0-0-]
	g [---------------------------------------------------------------------3-5-]	   [-0-0----0-0-]
	c [-------------------------------------------------------------------------](2X)  [------------]
	f [-------------------------------------------------------------------------]	   [------------]
	a [-------------------------------------------------------------------------]	   [------------]
	d [-------------------------------------------------------------------------]	   [------------]

  		(do stanza to chorus)


	c [-0-0-0-0----0-0-0-0----0-0-0-0-0-0-0-0-0-0-----]
	g [-0-0-0-0----0-0-0-0----0-0-0-0-0-0-0-0-0-0-----]	
	c [-----------------------------------------------]
	f [-----------------------------------------------] (8X)
	a [-----------------------------------------------]
	d [-----------------------------------------------]

(kau na bhala mgkumpleto,nka2lula gumawa neto.hehehe) \m/
Related for Stranded tab