Song name
# A B C D E F G H I J K L M N O P Q R S T U V W X Y Z

Slapshock - Direction tab

This is my first tab! I hope you understand me. ^_^

Slapshock - Direction
Tuning Drop C
Intro:
D|-----------------------------------------------------|
A|-----------------------------------------------------|
F|-----------------------------------------------------|
C|-----------------------------------------------------| 3x
G|---3333333333333333333b------------------------------|
C|-----------------------------------------------------|

D|-----------------------------------------------------|
A|-----------------------------------------------------|
F|-----------------------------------------------------|
C|---0--------3---------55555--------------------------|
G|---0--------3---------55555--------------------------|
C|---0--------3---------55555--------------------------|
Verse:
D|----------------------------      --------------------|
A|----------------------------      --------------------|
F|----------------------------      --------------------|
C|---0000--------------------- then ---333------5-------|
G|---0000---------------------      ---333------5-------|
C|---0000---------------------      ---333------5-------|
PM   ....
      3x

D|-----------------------------------------------------|
A|-----------------------------------------------------|
F|-----------------------------------------------------|
C|---0--------3---------55555--------------------------|
G|---0--------3---------55555--------------------------|
C|---0--------3---------55555--------------------------|

Interlude:
D|-----------------------------------------------------|
A|-----------------------------------------------------|
F|-----------------------------------------------------|
C|-----------------------------------------------------|
G|------10------12----13-----15-----17b----------------|
C|--000----000----000----000----000--------------------|
PM  ...    ...    ...    ...    ...

Chorus:

D|-----------------------------------------------------|
A|-----------------------------------------------------|
F|-----------------------------------------------------|
C|----8888888888-------------12121212121212------------|
G|----8888888888-------------12121212121212------------|
C|----8888888888-------------12121212121212------------|

D|-----------------------------------------------------|
A|-----------------------------------------------------|
F|---------------------------2222222222----------------|
C|----8888888888-------------0000000000----------------|
G|----8888888888-------------0000000000----------------|
C|----8888888888-------------0000000000----------------|

D|-----------------------------------------------------|
A|-----------------------------------------------------|
F|----1010101010-------------1414141414----------------|
C|----8888888888-------------1212121212----------------|
G|----8888888888-------------1212121212----------------|
C|----8888888888-------------1212121212----------------|

D|-----------------------------------------------------|
A|-----------------------------------------------------|
F|----1010101010-------------22222222------------------|
C|----8888888888-------------00000000------------------|
G|----8888888888-------------00000000------------------|
C|----8888888888-------------00000000------------------|

Repeat the Interlude: dont use palm mute

D|-----------------------------------------------------|
A|----1616161616-16161616------------------------------|
F|-----------------------------------------------------|
C|-----------------------------333----5----------------|
G|-----------------------------333----5----------------|
C|-----------------------------333----5----------------|


Verse:
D|----------------------------      --------------------|
A|----------------------------      --------------------|
F|----------------------------      --------------------|
C|---0000--------------------- then ---333------5-------|
G|---0000---------------------      ---333------5-------|
C|---0000---------------------      ---333------5-------|
PM   .... just figure out the timing
      3x

D|-----------------------------------------------------|
A|-----------------------------------------------------|
F|-----------------------------------------------------|
C|---0--------3---------55555--------------------------|
G|---0--------3---------55555--------------------------|
C|---0--------3---------55555--------------------------|

Repeat Interlude With Palm Mute:
Repeat chorus
Repeat Interlude dont use palm Mute

Bridge
D|--------------------------------------------------------------------|
A|--------------------------------------------------------------------|
F|--------------------------------------------------------------------|
C|--------------------------------------------------------------------|
G|--00-8-00-5-00-4-00-3-00-2---xxxxx--00-8-00-5-00-4-00-3-00-2---2h52-|
C|--00-8-00-5-00-4-00-3-00-2---xxxxx--00-8-00-5-00-4-00-3-00-2---2h52-|
PM  .. . .. . .. . .. . .. .          .. . .. . .. . .. . .. .

Do bridge part 6 times

Clean Part:
D|-----------------------------------------------------|
A|-----------------------------------------------------|
F|-----------------------------------------------------|
C|----10101010------------1414141414-------------------|
G|----88888888------------1212121212-------------------|
C|----88888888------------1212121212-------------------|

Then:
Distorted:
D|-----------------------------------------------------|
A|-----------------------------------------------------|
F|-----------------------------------------------------|
C|----8888888-------------000000000--------------------|
G|----8888888-------------000000000--------------------|
C|----8888888-------------000000000--------------------|
PM    .......             .........

last Chorus do this 2x
D|-----------------------------------------------------|
A|-----------------------------------------------------|
F|----1010101010-------------1414141414----------------|
C|----8888888888-------------1212121212----------------|
G|----8888888888-------------1212121212----------------|
C|----8888888888-------------1212121212----------------|

D|-----------------------------------------------------|
A|-----------------------------------------------------|
F|----1010101010-------------22222222------------------|
C|----8888888888-------------00000000------------------|
G|----8888888888-------------00000000------------------|
C|----8888888888-------------00000000------------------|

Outro

D|-----------------------------------------------------|
A|-----------------------------------------------------|
F|--2~----------2~----------2~-------------------------|
C|--0~----------0~----------0~-------------------------|
G|--0~----------0~----------0~-------------------------|
C|--0~----------0~----------0~-------------------------|

Legend:
Palm Mute - ....
ring it - ~
b - bend
x - Dead String

Tabber: Bryan Molas
Taga Aklan ako ^_^

if you are playing VanRO online Ragnarok http://vanserver.com/ragnarok/
im selling Godz Item and Ice Pick Aklan Area. Please contact my YM or email here is my 
add molzunxpected@yahoo.com

if you have question about my TAB please txt me or call me
09193539425 or my YM molzunxpected@yahoo.com TY!
Tap to rate this tab
 
# A B C D E F G H I J K L M N O P Q R S T U V W X Y Z