Song name
# A B C D E F G H I J K L M N O P Q R S T U V W X Y Z

Slapshock - Alive tab

alive intro carino brutal album,
by; core of aringay, la union

drop D.

intro;

|-------------------------------|
|-------------------------------|
|-------7s8--5s7----------------|
|---------------------8--5s7----|
|-------5s6--3s5------6--3s5----|
|--000------------000-----------|


|------------------------------------|
|------------------------------------|
|-------7s8--5s7--------10-8-7h8-7---|
|------------------------------------|
|-------5s6--3s5---------------------|
|--000------------000----------------|

|-------------------------------|
|-------------------------------|
|-------7s8--5s7----------------|
|---------------------8--5s7----|
|-------5s6--3s5------6--3s5----|
|--000------------000-----------|

|---------------------------------|
|---------------------------------|
|-------7s8--5s7-------8------7---|
|---------------------------------|
|-------5s6--3s5------------------|
|--000------------0000---0000-----|

|-------------------------------|
|-------------------------------|
|-------7s8--5s7----------------|
|---------------------8--5s7----|
|-------5s6--3s5------6--3s5----|
|--000------------000-----------|


|------------------------------------|
|------------------------------------|
|-------7s8--5s7--------10-8-7h8-7---|
|------------------------------------|
|-------5s6--3s5---------------------|
|--000------------000----------------|

|-------------------------------|
|-------------------------------|
|-------7s8--5s7----------------|
|---------------------8--5s7----|
|-------5s6--3s5------6--3s5----|
|--000------------000-----------|

|-----------------------------------------|
|-----------------------------------------|
|-------7s8--5s7----------8-6-5-----------|
|-------------------------------7-5-------|
|-------5s6--3s5--------5-----------7-5---|
|--000------------------------------------|

  thats all..
  this is my first time to write a tabs..
  comment me at my friendster url-
  friendster.com/core07
Tap to rate this tab
# A B C D E F G H I J K L M N O P Q R S T U V W X Y Z