Song name
# A B C D E F G H I J K L M N O P Q R S T U V W X Y Z

Slapshock - Cario Brutal tab

intro
|---------------------------------------------------------|
|---------------------------------------------------------|
|---------7---------9/7---------7-------------------------|
|-0~-0000-7-0~-0000-9/7-0~-0000-7-0~---7h8p7--------------|
|-0~-0000-5-0~-0000-7/5-0~-0000-5-0~-8-------8-8h9p8-3s5--|
|-0~-0000---0~-0000-----0~-0000---0~----------------------|
      ***       ***         ***

verse
|------------------------------------------------------------------|
|------------------------------------------------------------------|
|------------------------------------------------------------------|
|------------------------------------------------------------------|
|-------7-5------8-5-------5---7-------3s5-------7-5---------------|
|-00000----00000-----00000--000--00000-----00000-----00000-3h5p3h5-|
  *****    *****     *****  ***  *****     *****     *****
-----------------|
-----------------|
-----------------|
-----------------|
-1h3p1h3-3h5p3h5-|
-----------------|


Refrain
|-----------------------------------------------------------------------|
|-----------------------------------------------------------------------|
|-9999999999999-1111111111-999999999999-1111111111----------------------|
|-9999999999999-1111111111-999999999999-1111111111----------------------|
|-7777777777777--9-9-9-9-9-777777777777--9-9-9-9-9-00000000000000000000-|
|--------------------------------------------------00000000000000000000-|2x
                                                   ********************
|-----------------------------------------------------------------------|
|-----------------------------------------------------------------------|
|-9999999999999-1111111111-999999999999-1111111111----------------------|
|-9999999999999-1111111111-999999999999-1111111111-0~-------------------|
|-7777777777777--9-9-9-9-9-777777777777--9-9-9-9-9-0~-------------------|
|--------------------------------------------------0~-------------------|

Pre-Chorus
|---------------|
|---------------|
|---7----7----7-|
|-0-7----7----7-|
|-0-5-00-5-00-5-|
|-0---00---00---|
  *   **   **

Chorus
|---------------------------------------------|
|---------------------------------------------|
|----9-8----9-8----55\7----9-8----9-8----55\7-|
|----x-x----x-x----xx\x----x-x----x-x----xx\x-|
|-00-7-6-00-7-6-00-33\5-00-7-6-00-7-6-00-33\5-|
|-00-----00-----00------00-----00-----00------|
  **     **     **      **     **     **
|--------------------------|
|--------------------------|
|----13-11\9----13-11/9\11-|
|-----x--x\x-----x--x/x\x--|
|-00-11--9\7-00-11--9/7\9--|
|-00---------00------------|
  **         **
|------------------------------|
|------------------------------|
|----14-13----14-13----1111/13-|
|-----x--x-----x--x-----x-x/-x-|
|-00-12-11-00-12-11-00--9-9/11-|
|-00-------00-------00---------|
  **       **       **

Bridge
|----------------------------------------|
|----------------------------------------|
|-99999999999-111111111-99999999999-11~~-|
|-99999999999-111111111-99999999999-11~~-|
|-77777777777--99999999-77777777777--9~~-|
|----------------------------------------|

Solo
|------------------------------------------|
|------------------------------------------|
|----------------|----|--------------------|
|-9h11-11s14-13--| 3x |9h11h14p11p9h11h14--|
|--------------14|----|--------------------|
|------------------------------------------|

|-----------------------------------------------|
|-----------------------------------------------|
|----------------|    |-------------------------|
|-9h11-11s14-13--| 3x |-14-13---14-13---14-13---|
|--------------14|    |------14------14------14-|
|-----------------------------------------------|

Outro
|-------------------------------|
|-------------------------------|
|-------------------------------|
|-------------------------------|
|-00-0h1-00-0h1-00-0h1-00000000-|
|-00-0h1-00-0h1-00-0h1-00000000-|
                       ********

Pattern:
Intro 2x
Verse 3x
Refrain 3x
Pre-Chorus
Chorus
Refrain 3x
Pre-Chorus
Chorus 2x
Bridge
Solo
Verse 3x
Chorus 2x
Outro 4x


End .

rate poh!!
pnaghirapan q to
mga 95 % lang yata ang accuracy nito

hehe

Title:Carino Brutal
Tabbed by:nGekz Hahaha. .

SLAPSHOCK ROCKS!!
Tap to rate this tab
 
# A B C D E F G H I J K L M N O P Q R S T U V W X Y Z